PrimaNota.ru - самый крупный в мире бесплатный архив песенных текстов, аккордов, табулатур и нот


Lord Belial - Mark Of The Beast - текст песни, таба, видео

Регистрация Запомнить меня
Войти через:  Facebook Google Twitter Vk Yandex Mail.ru

Lord Belial - Mark Of The Beast - текст песни, таба, видео

Печатать
Просмотров: 16
Уроки эстрадного вокала в Санкт-Петербурге
[Intro]

B |---------------------------------------------------------------------------|
F#|---------------------------------------------------------------------------|
D |---------------------------------------------------------------------------|
A |---12-12-12-12---9--9--9-9---11-11-11-11-----------------------------------|
E |---9--9--9--9----9--9--9-9---9--9--9--9---7--7--7-7-7----------------------|
B |---7--7--7--7----7--7--7-7---7--7--7--7---8--8--8-8-8----------------------|

B |---------------------------------------------------------------------------|
F#|---------------------------------------------------------------------------|
D |---------------------------------------------------------------------------|
A |---12-12-12-12--9--9--9-9---7-7-7-7--7-7--7--------------------------------|
E |---9--9--9--9---9--9--9-9---7-7-7-7--5-5--4--------------------------------|
B |---7--7--7--7---7--7--7-7---5-5-5-5----------------------------------------|




Добавлено: 25.04.2017
Другие материалы по этой песне:
  • Аккорды и текст

Страница создана 16.08.2013
http://primanota.ru/lord-belial/mark-of-the-beast-chords.htm
Привет, Гость.
Предлагаем пройти революционный курс по гитаре.
Подарок от PrimaNota.Ru, забирай!