PrimaNota.ru - самый крупный в мире бесплатный архив песенных текстов, аккордов, табулатур и нот


Loquillo Y Los Trogloditas - El Ritmo De Garage - таба, видео

Регистрация Запомнить меня
Войти через:  Facebook Google Twitter Vk Yandex Mail.ru

Loquillo Y Los Trogloditas - El Ritmo De Garage - таба, видео

Печатать
Просмотров: 52
intro:
   G5 C5 G5  C5    D5      G5 C5 G5   C5    G5
e------------------------------------------------|
B------------------------------------------------|
G-----5------5-5---7-7-7-7-----5------5--5-------|
D--5--5--5---5-5---7-7-7-7--5--5--5---5--5--5-5--|
A--5--3--5---3-3---5-5-5-5--5--3--5---3--3--5-5--|
E--3-----3------------------3-----3---------3-3--|x3
  \3/                      \3/

saxo(arreglo guitarra) x2
e--10~-12-10----------------|
B------------12-10----------|
G------------------12-9-12~-|
D---------------------------|
A---------------------------|
E---------------------------|


G5                C5
   Tu madre no lo dice no
D5              G5
   pero me mira mal
C5                       D5
  quien es ese chico tan raro con el que vas

  G5 C5 G5   C5    G5
e-----------------------|
B-----------------------|
G-----5------5--5-------|
D--5--5--5---5--5--5-5--|
A--5--3--5---3--3--5-5--|
E--3-----3---------3-3--|

G5                  C5
   Cuando yo estoy delante
D5               G5
   me trata muy normal
C5                  D5
   y a solas se imagina un novio mas formal

  G5 C5 G5   C5    G5
e-----------------------|
B-----------------------|
G-----5------5--5-------|
D--5--5--5---5--5--5-5--|
A--5--3--5---3--3--5-5--|
E--3-----3---------3-3--|


C5                     D5
   cualquier noche los gatos, uh uh uh
G5            E5(x7999x)
   de tu callej
Добавлено: 18.09.2013
Другие материалы по этой песне:
  • Аккорды и текст

Страница создана 18.09.2013
http://primanota.ru/loquillo-y-los-trogloditas/el-ritmo-de-garage-chords.htm
Привет, Гость.
Предлагаем пройти революционный курс по гитаре.
Подарок от PrimaNota.Ru, забирай!