PrimaNota.ru - самый крупный в мире бесплатный архив песенных текстов, аккордов, табулатур и нот


Loquat - Rumbling - таба, видео

Регистрация Запомнить меня
Войти через:  Facebook Google Twitter Vk Yandex Mail.ru

Loquat - Rumbling - таба, видео

Печатать
Просмотров: 66
-----------------------------------------------------------------------------
                             Rumbling - Loquat
-----------------------------------------------------------------------------
Tabbed by: basuir79
E-mail: smithdude101@gmail.com

Tuning: Standard

Although this song isn't dominated by much guitar, it's still pretty fun and simple. :)

Verse
e|---------------------------4--|
B|---------------------------4--|
G|------4-6-4-------4-6-4----4--| X3
D|--6-6-------4-6-6--------6-6--|
A|------------------------------|
E|------------------------------|

Chorus
e|--------7----6----2-----------------|
B|--9--------------------4--------5---|
G|--9---------------------------------|
D|--9---------------------------------| X2
A|--7---------------------------------|
E|------------------------------------|

Bridge
e|--------------------------------------------------------------------|
B|--------------------------------------------------------------------|
G|--44-444-466-666-644-444-444-444-4--------66-666-688-888-888-888-8--|
D|----------------------------------66-666-6--------------------------|
A|--------------------------------------------------------------------|
E|--------------------------------------------------------------------|

e|-----------------------------------------------------|
B|-----------------------------------------------------|
G|--44-444-466-666-644-444-444-444-4-------------------|
D|----------------------------------66-666-666-666-66~ |
A|-----------------------------------------------------|
E|-----------------------------------------------------|

Final Chorus
2 measures of 1/16 notes
e|---------------------- ---------------------- -----------------------|
B|---------------------- ---------------------- -----------------------|
G|-9-------------------- -13------------------- -8---------------------|
D|---------------------- ---------------------- -----------------------|
A|-7-------------------- -11------------------- -6---------------------|
E|---------------------- ---------------------- -----------------------|

e|---------------------- ---------------------- -----------------------|
B|---------------------- ---------------------- -----------------------|
G|-9--------15---------- -9-------------------- -13--------16----15----|
D|---------------------- ---------------------- -----------------------|
A|-7--------13---------- -7-------------------- -11--------14----13----|
E|---------------------- ---------------------- -----------------------|

e|---------------------- ----------------------|
B|---------------------- ----------------------|
G|-11------------------- -11-------------------|
D|---------------------- ----------------------|
A|-9-------------------- -9--------------------|
E|---------------------- ----------------------|

End on:
e|-----------|
B|-----------|
G|-13--8--9~-|
D|-----------|
A|-11--6--7~-|
E|-----------|

Order:
Verse
Chorus
Verse
Chorus
Bridge
Chorus
Final Chorus

************************************

| /   slide up
| \   slide down
| h   hammer-on
| p   pull-off
| ~   vibrato
| +   harmonic
| x   Mute note
| b   Bend
| pb  Pre-bend
| br  Bend release
| pbr Pre-bend release
| brb Bend release bend

************************************
Добавлено: 03.08.2013
Другие материалы по этой песне:
  • Аккорды и текст

Страница создана 03.08.2013
http://primanota.ru/loquat/rumbling-chords.htm
Привет, Гость.
Предлагаем пройти революционный курс по гитаре.
Подарок от PrimaNota.Ru, забирай!