PrimaNota.ru - самый крупный в мире бесплатный архив песенных текстов, аккордов, табулатур и нот


Looming - Onward - таба, видео

Регистрация Запомнить меня
Войти через:  Facebook Google Twitter Vk Yandex Mail.ru

Looming - Onward - таба, видео

Печатать
Просмотров: 33
Artist: Looming
Album: Nailbiter
Track: Onward
Tuning: Standard (EADGBe)

Intro/verse
Guitar 1
E|--------------------------------|--------------------------------|
B|--------------------------------|--------------------------------|
G|--------------------------------|--------------------------------|
D|---0---------0------------------|---0---------0-----0-0-0-0-4p0--|
A|---------0---x------------------|---------0---x-----x-x-x-x-----0|
E|-7---7\2---2/3------------------|-7---7\2---2/3-----5-5-5-5------|

E|--------------------------------|--------------------------------|
B|--------------------------------|--------------------------------|
G|--------------------------------|--------------------------------|
D|---0---------0---0h2p0----------|---0---------0-----0-0-0-0-0-0-0|
A|---------0---x------------------|---------0---x-----x-x-x-x-x-x-x|
E|-7---7\2---2/3------------------|-7---7\2---2/3-----5-5-5-5-5-5-5|

Guitar 2
E|-----------14-------------------|--------------------------------|
B|-15---12------------------------|-15---12------------------------|
G|--------------------------------|-----------11-------------------|
D|--------------------------------|--------------------------------|
A|--------------------------------|--------------------------------|
E|--------------------------------|--------------------------------|

Break
Guitar 1
E|--------------------------------|---------------7*-|
B|-------------0-0---0-0----------|---------------7*-| downward
G|-------------0-0---0-0---4--4--4|--4--4--4--4---7*-| rake strum
D|-9-9---7-7---0-0---0-0---2--2--2|--2--2--2--2---7*-| for harmonics
A|-9-9---7-7---x-x---x-x---2--2--2|--2--2--2--2---7*-|
E|-7-7---5-5---3-3---2-2---0--0--0|--0--0--0--0---7*-|

Guitar 2
E|--------------------------------|---------------7*-|
B|--------------------------------|---------------7*-|
G|-1111--9-9---7-7---6-6---4--4--4|--4--4--4--4---7*-|
D|-x-x---x-x---x-x---x-x---2--2--2|--2--2--2--2---7*-|
A|-9-9---7-7---5-5---4-4---2--2--2|--2--2--2--2---7*-|
E|-------------------------0--0--0|--0--0--0--0---7*-|

Chorus (strumming/bends not shown, listen to song for them)
E|-0------------------------------|-0------------------------------|
B|-0------------------------------|-0------------------------------|
G|-x------------------------------|-x------------------------------|
D|-9------------------------------|-7------------------------------|
A|-9------------------------------|-7------------------------------|
E|-7------------------------------|-5------------------------------|

E|-0------------------------------|--------------------------------|
B|-0------------------------------|-0------------------------------|
G|-7------------------------------|-0------------------------------|
D|-7------------------------------|-0------------------------------|
A|-5------------------------------|-x------------------------------|
E|--------------------------------|-3------------------------------|
Добавлено: 11.11.2015
Другие материалы по этой песне:
  • Аккорды и текст

Страница создана 11.11.2015
http://primanota.ru/looming/onward-chords.htm
Привет, Гость.
Предлагаем пройти революционный курс по гитаре.
Подарок от PrimaNota.Ru, забирай!