PrimaNota.ru - самый крупный в мире бесплатный архив песенных текстов, аккордов, табулатур и нот


Look Mexico - Comin In Hot With A Side Of Bacon - таба, видео

Регистрация Запомнить меня
Войти через:  Facebook Google Twitter Vk Yandex Mail.ru

Look Mexico - Comin In Hot With A Side Of Bacon - таба, видео

Печатать
Просмотров: 92
(/) Slide Up  (\) Slide Down  (h) Hammer On  (p) Pull Off  (b) Bend (r) Release (v) Vibrato

Intro:

E|--------------------------------------|
B|--17--17--16--16--17--17--16----------|
G|------------------------------18--16--|
D|--------------------------------------|
A|--------------------------------------|
E|--------------------------------------|

E|----------------------------------------|
B|----------------------------------------|
G|--16--16--16--16--16--16--16--------16--|
D|--14--14--14--14--14--14--14/16h18------|
A|----------------------------------------|
E|----------------------------------------|

E|-------------------------------|
B|-------------------------------|
G|--18p16-----------------16b18--|
D|---------18--16--18b20---------|
A|-------------------------------|
E|-------------------------------|

Repeat that all of that

Play this 4 times:

E|--12----------------------------------------|
B|------12------------------------------------|
G|----------13-----13-------------------------|
D|---------------------14---------16--13------|
A|-------------------------16-------------14--|
E|--------------------------------------------|

This goes over it, on the third repeat:

E|-----------------------------------------------------|
B|--14/17\12----------------14h16--16\--14--19\16------|
G|-------------------14h16-------------------------16--|
D|------------14h16------------------------------------|
A|-----------------------------------------------------|
E|-----------------------------------------------------|

After that:

E|--------------------------------0--0--0--|
B|--12\9--------9--------0-----------------|
G|--------9p11--------------9p11-----------|
D|-----------------9p11--------------------|
A|-----------------------------------------|
E|-----------------------------------------|

That goes right into these chords (I'm not too sure about this):

E|-----------------------|
B|--12--------14-----13--|
G|--9---------9------9---|
D|--11--------11-----11--|
A|-----------------------|
E|-----------------------|

Then these:

E|---------|
B|--9--10--|
G|--9--9---|
D|--7--7---|
A|---------|
E|---------|

This is played:

E|-------------------------------------|
B|-------------------------------------|
G|-------------------------------------|
D|----------14--15--17b20--16----------|
A|------15---------------------17------|
E|--17-----------------------------18--|


E|------------------------------------------|
B|------------------------------------------|
G|------------------------------------------|
D|----------16--17--19--21--19--17--16------|
A|------17------------------------------17--|
E|--18--------------------------------------|


E|-----------9--7--|
B|--5--3--5--5--5--|
G|--7--5--7--7--7--|
D|--5--3--5--5--5--|
A|-----------------|
E|-----------------|

E|-----------------------|
B|-----------------------|
G|--13p9--16p9--19p9--9--|
D|-----------------------|
A|-----------------------|
E|-----------------------|

E|---------------------|
B|---------------------|
G|--21p9--20p9--16/18--|
D|---------------------|
A|---------------------|
E|---------------------|
Добавлено: 17.12.2015
Другие материалы по этой песне:
  • Аккорды и текст

Страница создана 17.12.2015
http://primanota.ru/look-mexico/comin-in-hot-with-a-side-of-bacon-chords.htm
Привет, Гость.
Предлагаем пройти революционный курс по гитаре.
Подарок от PrimaNota.Ru, забирай!