PrimaNota.ru - самый крупный в мире бесплатный архив песенных текстов, аккордов, табулатур и нот


Lonnie Mack - Satisfy Suzie Live - таба, видео

Регистрация Запомнить меня
Войти через:  Facebook Google Twitter Vk Yandex Mail.ru

Lonnie Mack - Satisfy Suzie Live - таба, видео

Печатать
Просмотров: 26
SATISFY SUZIE (Live)

As recorded by Lonnie Mack
(From the 1990 Album ATTACK OF THE KILLER V: LIVE!)

Words and Music by Lonnie Mack & Tim Drummond

Transcribed by Slowhand


Gtr I (E A D G B E) - 'Lonnie Mack - Electric Guitar'

To play along with the recording tune up 1/2 step or capo 1st fret.

 Intro 1
  Q=142
  N.C.               E7
 4/4
  Gtr I (El. Gtr. w/ light dist.)
                                           PM--------|
  Q  E E E E E E     Q  E E E E E E   +Q   E E E E E E  3x
|----------------||-----------------|-------------------||
|----------------||o----3---3-3---3-|-(3)--------------o||
|------------0-1-||-----1---1-1---1-|-(1)----------0-1--||
|--------0h2-----||-----2---2-2---2-|-(2)------0-2------||
|----0h2---------||o----------------|------0-2---------o||
|----------------||--0--------------|-------------------||


                                         A7
                                                               PM--|
  Q  E E E E E E   +E  E E E E E S S E   Q  E E E E E E   +Q   E E E E E E
|----------------|-----0---0-0-0-------|----3---3-3---3-|-(3)--------3-----|
|----3---3-3---3-|-(3)---0---0---------|----2---2-2---2-|-(2)--------2-----|
|----1---1-1---1-|-(1)-----------2p0---|----0---0-----0-|-(0)----------1-2-|
|----2---2-2---2-|-(2)---------------2-|----------------|----------0-------|
|----------------|---------------------|-0--------------|------0-2---------|
|-0--------------|---------------------|----------------|------------------|


  A7                                     E7
                           PM--|
  Q  E E E E  E  E   +E  E E E E E E E   Q  E E E E E E   +E  E E E E E E E
|----3---3-3-(3)-3-|-(3)-3-------3-----|----------------|-----0--------------|
|----2---2-2-----2-|-(2)-2-------2-----|----3---3-3---3-|-(3)-3--------------|
|----0---0-0-----0-|-(0)-----------1-2-|----1---1-1---1-|-(1)-----------0-1--|
|------------------|-----------0-------|----2---2-2---2-|-(2)-------0-2------|
|-0----------------|-------0-2---------|----------------|-------0-2----------|
|------------------|-------------------|-0--------------|--------------------|


                                       B7+9
                         PM--------|
  Q  E E E E E E   +E  E E E E E E E   Q  E E E Q  E   +E  E a E E a E E S S E
|----------------|-------------------|----3----------|-----0-----0-----0-------|
|----3---3-3---3-|-(3)-3-------------|----3---2-3--0-|-(0)---------------------|
|----1---1-1---1-|-(1)-----------0-1-|----2---2------|-------3s4---3s4---2p0---|
|----2---2-2---2-|-(2)-------0-2-----|---------------|-----------------------2-|
|----------------|-------0-2---------|-2-------------|-------------------------|
|-0--------------|-------------------|---------------|-------------------------|


  A7                                   E7
  Q  E E E E E E   +Q    Q   E E E E   Q  E E E E E E   +E  E E E E E E E
|----3---3-3---3-|-(3)--(0)----------|----------------|-----0--------------|
|----2---2-2---2-|-(2)---------------|----3---3-3---3-|-(3)----------------|
|----0---0-0---0-|-(0)-----------0-1-|----1---1-1---1-|-(1)-----------0-1--|
|----------------|-----------0-2-----|----2---2-2---2-|-(2)-------0-2------|
|-0--------------|-------------------|----------------|-------0-2----------|
|----------------|-------------------|-0--------------|--------------------|


                                  Intro 2 & Interlude
                                $
                  G    A           E7
  Q  E E E E Q    H    Q.   S S    Q  E E E E E E
|------------0--|---------------||----------------|
|----3---3-3----|-0----2--------||----3---3-3---3-|
|----1---1------|-0----2----0h1-||----1---1-1---1-|
|----2---2------|-0----2--------||----2---2-2---2-|
|---------------|------0--------||----------------|
|-0-------------|-3-------------||-0--------------|


  +E  E E E E E E E   Q  E E E E E E   +E  E E E E E E E
|-----0-------------|----------------|-----0-------0-----||
|-(3)---------------|----3---3-3---3-|-(3)---------------||
|-(1)-----------0-1-|----1---1-1---1-|-(1)-----0h1---0h1-||
|-(2)-------0-2-----|----2---2-2---2-|-(2)---2-----------||
|-------0-2---------|----------------|-------------------||
|-------------------|-0--------------|-------------------||


   1st - 4th Verses
    E7
    PM|   PM            PM|   PM            PM|   PM
    E E E E E E E a E   E E E E E E E a E   E E E E E E E a E
||------------0-------|-----------0-------|-----------0--------|
||o-----------3-------|-----------3-------|-----------3--------|
||------1---1---2-0h1-|-----1---1---2-0h1-|-----1---1---2-0h1--|
||------2---2---------|-----2---2---------|-----2---2----------|
||o-------------------|-------------------|--------------------|
||--0-0---0-----------|-0-0---0-----------|-0-0---0------------|


                   Chorus
                    A9                                  E7
  PM|                                                   PM|   PM
  E E Q  E E E E    E E E E H      +H     +E  E E a E   E E E E E E E a E
|----------------||--------------|------------0-0-----|-----------0--------|
|-----3--0-0-----||-----0---0----|-(0)----(0)-0-0-----|-----3---3-3--------|
|-----1--0-0-2-0-||-----0---0----|-(0)----(0)-0-2-0h1-|-----1---1---2-0h1--|
|-----2----------||-----2---2----|-(2)----(2)---------|-----2---2----------|
|----------------||-0-0---0------|--------------------|--------------------|
|-0-0------------||--------------|--------------------|-0-0---0------------|


                                                                To Coda
                   B7                A9               E7
  PM                                                  PM
  Q  E E E E E E   E E E E E E E E   E E Q  E E E E   Q  E E E E S S E
|----------0-----|-----------0-----|--------0-0-----|----------0---------|
|----3-3-3-3-----|---------0-0-----|-----0--0-0-----|----3---3-3-3p2p0---|
|----1-1-1-------|-----2---2---2-0-|-----0--0---0h1-|----1---1-----------|
|----2-2-2-------|-----1---1-------|-----2--2-------|----2---2-----------|
|------------0-1-|-2-2-2-2-2-------|-0-0-0----------|--------------------|
|-0--------------|-----------------|----------------|-0------------------|


  1.,D.S.
  G    A          E7
  H    Q.   S S   Q  E E E E E E   +Q   E E E E E E   Q  E E E E E E
|---------------|----------------|------------------|----------------|
|-0----2--------|----3---3-3---3-|-(3)--------------|----3---3-3---3-|
|-0----2----0h1-|----1---1-1---1-|-(1)----------0-1-|----1---1-1---1-|
|-0----2--------|----2---2-2---2-|-(2)------0-2-----|----2---2-2---2-|
|------0--------|----------------|------0-2---------|----------------|
|-3-------------|-0--------------|------------------|-0----0-----0---|


                       2.
                        G    A
  +E  E E E E E E E     H    Q  Q
|-----0-------0------||------------||
|-(3)---------------o||-0----2-----||
|-(1)-----0h1---0h1--||-0----2-----||
|-(2)---2------------||-0----2-----||
|-------------------o||------0-----||
|--------------------||-3----------||


 Guitar Solo
  N.C.
  E    +S  S S S E    +S  S S S E    +S  S
|-5pb7r(5)p3-----5pb7r(5)p3-----5pb7r(5)p3--|
|------------5p0------------5p0-------------|
|-------------------------------------------|
|-------------------------------------------|
|-------------------------------------------|
|-------------------------------------------|


  S S E    +S  S S S E    +S  S S S E
|-----5pb7r(5)p3-----5pb7r(5)p3-----5pb7r|
|-5p0------------5p0------------5p0------|
|----------------------------------------|
|----------------------------------------|
|----------------------------------------|
|----------------------------------------|


  +S  S S S E    +S  S S S E    +S  S S S   E    +E  S S E     E E E E
|-(5)p3-----5pb7r(5)p3-----5pb7r(5)p3-----|-5pb7-(5)-3h5-3b3.5-------3b3.5-|
|-------5p0------------5p0------------5p0-|--------------------5-3-5-------|
|-----------------------------------------|--------------------------------|
|-----------------------------------------|--------------------------------|
|-----------------------------------------|--------------------------------|
|-----------------------------------------|--------------------------------|


     ~            ~~~~~~~~
  Q  Q  E E     E E   +E  E S S S S S S E     S S S S
|---------3b3.5-----|-------4-5-6-6-7-0-3b3.5---------|
|-5--5--5-------5-5-|-(5)-0-------------------5-3-0---|
|-------------------|-------------------------------2-|
|-------------------|---------------------------------|
|-------------------|---------------------------------|
|-------------------|---------------------------------|


    |3|
  a E Q +E  E a E E E S S
|-----0-(0)---------------|
|-----0-(0)-3-------------|
|-0h1---------4s2-0-2-0h1-|
|-------------------------|
|-------------------------|
|-------------------------|


                                        ~~~~~~~~~
  +E  S S E E E E E E   Q.     +E  E. S Q    +Q   S S S S a Q  S S S S
|-------------0-0---0-|-5pb7r==(5)-3-------|------3-0------------------|
|-------------0-0-3---|---------------5-5--|-(5)------3-0-3h5--3-0-----|
|-(1)-------0-1-1-----|--------------------|-----------------------2-0-|
|-----------0-2-------|--------------------|---------------------------|
|-----2p0-------------|--------------------|---------------------------|
|---------3-----------|--------------------|---------------------------|


                                   ~~~~~~~
  E a E E E E E a E E   E E     E +E  +E  E     E E
|---------------------|---3b3.5-----------3b3.5------|
|-------------------3-|-5-------5-(5)-(5)-------5-5/-|
|-2-0h1-------0-2s4---|------------------------------|
|-2-----2-0-2-0-------|------------------------------|
|---------------------|------------------------------|
|---------------------|------------------------------|


    E  E  E  E     S  E     S  E     S  S
|-----12-12-------12-------12-------12--------|
|-/12-------15b17----15b17----15b17----15b17==|
|---------------------------------------------|
|---------------------------------------------|
|---------------------------------------------|
|---------------------------------------------|


   +S    S  E     S  E     S  E     S  S  +E   E
|-------12-------12-------12-------12-12-(12)-------|
|-(15)r----15b17----15b17----15b17------------15b17-|
|---------------------------------------------------|
|---------------------------------------------------|
|---------------------------------------------------|
|---------------------------------------------------|


                                                                              |----3-----|
   S  E     S  E     S  S      +S    S  E     S  E     S    E     E  Q       +Q    Q     Q
|-12-------12-------12--------------12-------12-------12-|-------12-15b17===(15)r-15b17-15b17-|
|----15b17----15b17----15b17==(15)r----15b17----15b17----|-15b17------------------------------|
|--------------------------------------------------------|------------------------------------|
|--------------------------------------------------------|------------------------------------|
|--------------------------------------------------------|------------------------------------|
|--------------------------------------------------------|------------------------------------|


   |-----3-----|
   Q     Q     Q     E     E  E  E
|-15b17-15b17-15b17-15b17-15-12-------|
|-------------------------------15b17-|
|-------------------------------------|
|-------------------------------------|
|-------------------------------------|
|-------------------------------------|


   E  E  E     E  E  E     E  E    E     E  E     E  S  S S S E   +E
|-12-12-------12-12-------12-12-|-------12-------12-------------------|
|-------15b17-------15b17-------|-15b17----15b17----12s10p8---8b9-(8)-|
|-------------------------------|---------------------------9---------|
|-------------------------------|-------------------------------------|
|-------------------------------|-------------------------------------|
|-------------------------------|-------------------------------------|


                                              ~~~~~~~~~
  Q   a E E E E Q    Q    Q    S    +S  S S a Q    +Q   E E S S S S S S S S
|-----------0-3-0--|-5b7--5b7--5pb7r(5)p3p0-3h5--|-(5)--7-0-3p0--------------|
|---------3--------|-----------------------------|--------------3p0----------|
|-9\--2s4----------|-----------------------------|------------------4-4-2p0h=|
|------------------|-----------------------------|---------------------------|
|------------------|-----------------------------|---------------------------|
|------------------|-----------------------------|---------------------------|


                                ~~
  E E E E E E E E   +E  E     E E E E    +S  S S S
|---0-----0-3-----|-----3b3.5-------5pb7r(5)p3-----|
|---0-0-3-----5-5-|-(5)-------5-5p0------------5p0-|
|-1-1-------------|--------------------------------|
|-2---------------|--------------------------------|
|-----------------|--------------------------------|
|-----------------|--------------------------------|


  E    +S  S S S E    +S  S S S E    +S  S
|-5pb7r(5)p3-----5pb7r(5)p3-----5pb7r(5)p3--|
|------------5p0------------5p0-------------|
|-------------------------------------------|
|-------------------------------------------|
|-------------------------------------------|
|-------------------------------------------|


  S S E    +S  S S S E    +S  S S S E
|-----5pb7r(5)p3-----5pb7r(5)p3-----5pb7r|
|-5p0------------5p0------------5p0------|
|----------------------------------------|
|----------------------------------------|
|----------------------------------------|
|----------------------------------------|


  +S  S S S E    +S  S S S E    +S  S S S   E   E E E E   E E E
|-(5)p3-----5pb7r(5)p3-----5pb7r(5)p3-----|-5b7-5-3-5-5b7-0-0-5--|
|-------5p0------------5p0------------5p0-|----------------------|
|-----------------------------------------|----------------------|
|-----------------------------------------|----------------------|
|-----------------------------------------|----------------------|
|-----------------------------------------|----------------------|


      ~            ~~~~~~~~
                               |-3-|
  E E Q  E E     E E   +Q   Q  E E E E E   E E a E E S S E E S S
|-3--------3b3.5-----|-------------------|---0-------------------|
|---5-5--5-------5-5-|-(5)--5--5p3p0-----|---0-----3-------------|
|--------------------|---------------2-0h|=1---2s4---4p2p0-2-0h1-|
|--------------------|-------------------|-----------------------|
|--------------------|-------------------|-----------------------|
|--------------------|-------------------|-----------------------|


                                        ~~~~~~~~~~~
  E E E S S E S S E E   S S E E E E E E E   +Q   Q  S S E E E
|-----------0---------|-----------0-3-----|--------------------|
|-----------0-----3-3-|---------0-----5-5-|-(5)--5--5p3p0------|
|-------0h1---2s4-----|-4p2-0-2-----------|---------------2-0h=|
|---------------------|-------------------|---------------2----|
|-2-0-2---------------|-------------------|--------------------|
|---------------------|-------------------|--------------------|


                                                    Piano Solo
                                                     E
  E E E S S S S E E a E   S S E E E E E     E S S    Q  Q  H      Wx11
|---0-------------------|-------------------------||------------|---------|
|---0-------------------|-------------------------||-0----------|---------|
|-1---2-0h1-1-----2-0h1-|-------------2b2.5-------||-1----------|---------|
|-----------2p0---2-----|-2p0---0-1-2-------2-0h2-||-2----------|---------|
|---------------2-----2-|-----2-------------------||-2----------|---------|
|-----------------------|-------------------------||-0----------|---------|


  E7+9
  Q  S S S S E a E E a E   Q  S S S S E E E a E   Q  S S S S E E E a E
|----3-3-3-3-----3-----3-|----3-3-3-3---3-----3-|----3-3-3-3---3-----3-|
|----3-3-3-3---0h3---0h3-|----3-3-3-3-------2h3-|----3-3-3-3---3-----3-|
|----1---------0h1---0h1-|----0-0-0-0---0-------|----0-0-0-0---2---0h1-|
|------------------------|----------------------|----------------------|
|------------------------|----------------------|----------------------|
|------------------------|----------------------|----------------------|


  Q  S S S S E E E a E   Q  S S S S e E E E   Q  S S S S e E E E
|----3-3-3-3---3-------|----3-3-3-3-3-3---3-|----3-3-3-3-3-3-3----|
|----3-3-3-3-3-3---0h3-|----3-3-3-3-3-3---3-|----3-3-3-3-3-3---3--|
|----1-1-1-1-1-----0h1-|----0-0-0-0---0-----|----0-------0-----0--|
|----------------------|--------------------|---------------------|
|----------------------|--------------------|---------------------|
|----------------------|--------------------|---------------------|


                                              B7+9
  Q  S S S S e E E a E   Q  S S S S E E E E   E E E E S S E E E
|----3-3-3-3-3-3-----3-|----3-3-3-3-3-3-----|---------0-0-0-----|
|----3-3-3-3-3-3---0h3-|----3-3-3-3-3-3-----|-----3---0-0-0-----|
|----1-1-1-1-1-1---0h1-|--------------------|-----2---------2-0-|
|----------------------|--------------------|-----1-------------|
|----------------------|----------------0-1-|-2-2-2-2-----------|
|----------------------|--------------------|-------------------|


                                    D.S. al Coda
  A                     E7               G    A
  E E E E S S E E a E   Q  E E E E E E   H    H
|-----------0-0-------|----------0-----|-----------||
|-----2---2-2-2-------|----3---3-3-3-0-|-0----2----||
|-----2---2-2-2-2-0h1-|----1---1---1-0-|-0----2----||
|---------------------|----2---2---2---|-0----2----||
|-0-0---0-------------|----------------|------0----||
|---------------------|-0----0---------|-3---------||


  &
  H    Q.   S S   Q  E E E E E E   +Q   E E E E E E   Q  E E E E E E
|---------------|----------------|------------------|----------------|
|-0----2--------|----3---3-3---3-|-(3)--------------|----3---3-3---3-|
|-0----2----0h1-|----1---1-1---1-|-(1)----------0-1-|----1---1-1---1-|
|-0----2--------|----2---2-2---2-|-(2)------0-2-----|----2---2-2---2-|
|------0--------|----------------|------0-2---------|----------------|
|-3-------------|-0--------------|------------------|-0----0-----0---|


                      B7+9               A7              E7
  +E  E E E E E E E   Q   E  E E E E E   Q  Q  E E E E   Q  Q  E E E E
|-----0-------0-----|------------0-----|---------------|----------------||
|-(3)---------------|----(3)-----3-2---|----2--2-2-----|----3--3-3-3-3--||
|-(1)-----0h1---0h1-|-----2----3---2-0-|----0--0-0-0h1-|----1--1-1-1-1--||
|-(2)---2-----------|-----1----2-------|----2--2-------|----2--2-2-2-2--||
|-------------------|-2------2-1-------|-0-------------|----------------||
|-------------------|------------------|---------------|-0--------------||


 Outro
  H.=H
  G    A      E7+9
              TP
  H    H      H    +Q   E  E
|-----------|-3----(3)--3/---*|
|-0----2----|-3----(3)--3/---*|
|-0----2----|----------------*|
|-0----2----|-2----(2)--2/---*|
|------0----|----------------*|
|-3---------|----------------*|


Duration Legend
---------------
W - whole; H - half; Q - quarter; E - 8th; S - 16th; T - 32nd; X - 64th; a - acciaccatura
+ - note tied to previous; . - note dotted; .. - note double dotted
Uncapitalized letters represent notes that are staccato (1/2 duration)
Irregular groupings are notated above the duration line
Duration letters will always appear directly above the note/fret number it represents the
duration for.  Duration letters with no fret number below them represent rests.  Multi-
bar rests are notated in the form Wxn, where n is the number of bars to rest for.  Low
melody durations appear below the staff

Tablature Legend
----------------
 h   - hammer-on
 p   - pull-off
 b   - bend
 pb  - pre-bend
 r   - bend release (if no number after the r, then release immediately)
 /\  - slide into or out of (from/to "nowhere")
 s   - legato slide
 S   - shift slide
  - natural harmonic
[n]  - artificial harmonic
n(n) - tapped harmonic
 ~   - vibrato
 tr  - trill
 T   - tap
 TP  - trem. picking
 PM  - palm muting
\n/  - tremolo bar dip; n = amount to dip
 \n  - tremolo bar down
 n/  - tremolo bar up
/n\  - tremolo bar inverted dip
 =   - hold bend; also acts as connecting device for hammers/pulls
 <>  - volume swell (louder/softer)
 x   - on rhythm slash represents muted slash
 o   - on rhythm slash represents single note slash

Misc Legend
-----------
 |  - bar
||  - double bar
||o - repeat start
o|| - repeat end
*|  - double bar (ending)
 :  - bar (freetime)
 $  - Segno
 &  - Coda
Tempo markers -  = BPM(8/16=s8/s16), where s8 = swing 8ths, s16 = swing 16ths
Добавлено: 09.06.2016
Вам также может быть интересно:
Другие материалы по этой песне:

Страница создана 09.06.2016
http://primanota.ru/lonnie-mack/satisfy-suzie-live-chords.htm
Привет, Гость.
Предлагаем пройти революционный курс по гитаре.
Подарок от PrimaNota.Ru, забирай!