PrimaNota.ru - самый крупный в мире бесплатный архив песенных текстов, аккордов, табулатур и нот


Lonnie Johnson - Swingin The Blues - таба, видео

Регистрация Запомнить меня
Войти через:  Facebook Google Twitter Vk Yandex Mail.ru

Lonnie Johnson - Swingin The Blues - таба, видео

Печатать
Просмотров: 82
Lonnie Johnson - Swingin' The Blues
Tab By Aldoalain


|-----3-6-6-5-5-3-3-------------------6\5-3-----------------------------------------|
|-3-5---------------6-6-3-3-----------6\5---6br--3--------------------1-------------|
|---------------------------5-0-3h4----------------5---3-4------------0-------------|
|-----------------------------------5----------------5-----5--5-5\3p0-2-------------|
|---------------------------------------------------------------------3-------------|
|-----------------------------------------------------------------------------------|

|-------3-6-6-3-----------3-6-5-3---0-6p5p3-----------------------------------------|
|-1-3/5-------3---0-1-3/5---------5---------6p5p3-----------------------0-----------|
|---------------0-1-------------------------------5p3p0-3-4-------------0-----------|
|---------------0-2-----------------------------------------5-0-------0-------------|
|-----------------3---------------------------------------------5-5/7---------------|
|-----------------------------------------------------------------------------------|

|--7-------------------------------------------3-6-6p3-3---------6-6p3-3------------|
|--5---5-5-5-6---6-6-6---6-5-3---------3-----------------6-6-3-----------6-6-3------|
|--6---6-6-6-6---6-6-6-5-------5---3-4-----------------------------------------4----|
|--5---5-5-5-5---5-5-5-4---------5-----------------------------5--------------------|
|------------6---6-6-6-x-----------------5-5-5--------------------------------------|
|-5----5-5-5-----------5------------------------------------------------------------|

|-6-6p3-3--------------------------------------3-6-5-5p3----------3-6-5-3---0-------|
|---------6-6-3-3----------------------1-1-3/5-----------0-1-1-3/5--------5---------|
|-----------------5-0-3-4-5------------0-----------------0-0------------------------|
|---------------------------5--5-5\3p0-2-------------------2------------------------|
|--------------------------------------3-------------------3------------------------|
|-----------------------------------------------------------------------------------|

|-6p5p3-----------------------------------7-7---------6-----------3-5-3--3----------|
|-------6p5p3-------------3-----------0---5---8-8-5---5-8-8-5-3/5----------6p5p3----|
|-------------5p3p0-3h4h5-------------0---6-----------6-----------------------------|
|-----------------------------------0-----5-----------------------------------------|
|---------------------------5-5-5/7-----------------0-------------------------------|
|---------------------------------------5-------------------------------------------|

|-----------------------------------------------------------------------------6b----|
|-------------------5-------------------------------------------------------3-------|
|-5p3p0-3-4-----6-5-5-----4-5-6-7-----4-5-6-7-----4-5-6-7---7---6---5---3h4---------|
|-----------5-x-5-4-4-0-5---------0-5---------0-5---------0---0---0---0-------------|
|-------------x-x-x-----------------------------------------------------------------|
|---------------6-5-----------------------------------------------------------------|

|-3-------------------3-6-6-3-----------3-6-5-3---0-6p5p3-------------6b-3----------|
|---3---------1-1-3/5---------0-1-1-3/5---------5---------6p5p3-----3------3-------3|
|-----3-4---0-0---------------0-0-------------------------------3h4----------5-3h4--|
|---------5-0-2-----------------2---------------------------------------------------|
|-------------3-----------------3---------------------------------------------------|
|-----------------------------------------------------------------------------------|

|-------7--7-7--7-7-7-----3--6-5-3---------------3-0---3-3--0--3--------------------|
|-------5--5-5--5-5-5-3-5----------6p5-3-------------3-4-4--0--3---4---3----3-------|
|-------6----6----6----------------------5-0-3-4-------5-------4-0-5-4-4--4-4-------|
|-----x-5----5----5----------------------------------------------0-6-5-5--5-5-------|
|-5/7-x------------------------------------------------------------x-x----x---------|
|-------5----------------------------------------------------------6-5----5---------|

|------------------------------------------------------6b-3-------------------------|
|----------------------------------------------------3------3-----------1-----------|
|-0---4-5-6-7\0-----4-5-6-7\---7\6-0-6\5-0-5\4-0-3h4----------5-3-4---0-0-----------|
|-0-5-----------0-5----------0--------------------------------------5-0-2-----------|
|-----------------------------------------------------------------------3-----------|
|-----------------------------------------------------------------------------------|

|-------3-6-6-3-----------3-6-5-3---0-6p5p3-----------------------------------------|
|-1-3/5-------3---0-1-3/5---------5---------6p5p3-----------3------------0----------|
|---------------0-1-------------------------------5p3p0-3-4--------------0----------|
|---------------0-2----------------------------------------------------0------------|
|-----------------3-------------------------------------------5-5--5/7--------------|
|-----------------------------------------------------------------------------------|


|-7--7------6--6p5---3-5-3h5p3--3---------3-3-0-3-----------------------------------|
|-5----8-5---------5--------------6p5-3---4-4-0-3-------3--3-3----------------------|
|-6-------------------------------------5-5-5---4---6-5-5--5-5-0--------------------|
|-5-----------------------------------------------0-5-4-4--4-4-0--------------------|
|-------------------------------------------------0-x-x------x----------------------|
|-5-------------------------------------------------6-5------5----------------------|

|-/10--10-10--10-10--10-10-10\--/10--10-10--10-10--10-10\--/10-10-10--9--9--8--8----|
|-/12--12-12--12-12--12-12-12\--/12--12-12--12-12--12-12\--/12-12-12-11-11-10-10----|
|-/12-----12-----12-----12-12\--/12-----12-----12-----12\--/12-12-12-11-11-10-10----|
|-----------------------------------------------------------------------------------|
|-----------------------------------------------------------------------------------|
|-----------------------------------------------------------------------------------|

|-7-7-6-6-5-5-x-3--3----------------3--3----------------------5/7\5-3---------------|
|-9-9-8-8-7-7-x------5--5----------------5--5---------------3---------5-3-------3---|
|-9-9-8-8-7-7-x-----------3--3----------------3--3------3h4---------------4-3h4-----|
|------------------------------5--5----------------5--5-----------------------------|
|-----------------------------------------------------------------------------------|
|-----------------------------------------------------------------------------------|

|--------------7-7--7------6--6p5-3---3-5-3h5p3--3----------------------------------|
|------------0-5------8-5-----------5--------------6p5-3-----------------3----------|
|------------0-6-----------------------------------------5-0-3-4-----6-5-5----------|
|----------0---5-------------------------------------------------5-0-5-4-4----------|
|-5-5--5/7---------------------------------------------------------0-x-x------------|
|--------------5-----------------------------------------------------6-5------------|

|-----------------------------------------------------------------------------------|
|-3-6b-6b--6b-6b--6b-6b--6b-6b--6r-3-6-6b-----3--3-3--6b--6b--6b--6--3--6--3--------|
|-------------------------------------------4-4----------------------------5--------|
|-----------------------------------------x-5-5----------------------------4--------|
|-----------------------------------------x-5------------------------------5--------|
|-------------------------------------------3---------------------------------------|

|---------------------------------------------------6b-3----------------------------|
|-3-3-6b--6b--6r--3-6-6b--6b--6b--6br-3------------------3-----------1--------------|
|---------------------------------------5-3-4-5-3----------3-4-------0--------------|
|-------------------------------------------------5------------5\3p0-2--------------|
|--------------------------------------------------------------------3--------------|
|-----------------------------------------------------------------------------------|

|-------3-6-6-3-----------3-6-5-3---0-6p5p3-----------------------------------------|
|-1-3/5-------3---0-1-3/5---------5---------6p5p3-----------3------------0----------|
|---------------0-1-------------------------------5p3p0-3-4--------------0----------|
|---------------0-2----------------------------------------------------0------------|
|-----------------3-------------------------------------------5-5--5/7--------------|
|-----------------------------------------------------------------------------------|


|---7--7-7--7-7--7-7--7---0-----3--3-3--0--3--3-------3-3-0-3-----------------------|
|---5--5-5--5-5--5-5----8---3---4--4-4--0--3----5-3---4-4-0-3-------3---------------|
|---6----6----6----6----------5------5-----4--------5---5---4-0-6-5-5---------------|
|---5----5----5----5------------------------------------------0-5-4-4---------------|
|---------------------------------------------------------------x-x-----------------|
|-5-------------------------------------------------------------6-5-----------------|

|---------------------------------------------------------------6b-3----------------|
|-------------------------------------------------------------3------3-----------1--|
|-----4-5-6-7-7\5-4---0-5/6-7-7\5-4---0-7\6-0-6\5-0-5\4-0-3h4----------5-3-4---0-0--|
|-0-5---------------5---------------5----------------------------------------5-0-2--|
|--------------------------------------------------------------------------------3--|
|-----------------------------------------------------------------------------------|

|-------3-6-6-3-----------3-6-5-3---0-6p5p3-----------------------------------------|
|-1-3/5-------3---0-1-3/5---------5---------6p5p3-----------3-----------0-----------|
|---------------0-1-------------------------------5p3p0-3-4-------------0-----------|
|---------------0-2---------------------------------------------------0-------------|
|-----------------3-------------------------------------------5-5-5/7---------------|
|-----------------------------------------------------------------------------------|

|---7--7-7-7------6--6-6-6--------5-------------------------------------------------|
|---5--5-5-5-8-5--5--5-5-5-8--5-8---8--6p5-3-----------------3--3-6b-6r--3----------|
|---6----6--------6----6---------------------5-0-3-4-----6-5-5-------------5-3h4----|
|---5-------------5----------------------------------5-0-5-4-4-------------------5--|
|-----------------0------------------------------------0-x-x------------------------|
|-5------------------------------------------------------6-5------------------------|

|----------------------------------------------3-3----------------------------------|
|-3-3-6b-6r--3---3--3-3-6b-6r--3-3-6/8----3-3------6-6-3---3------------------------|
|-4------------4----5---------------------4--------------5-4-3-4-5-3----------------|
|-5-----------------4---------------------5----------------5---------5-5--5-5\3p0---|
|-------------------5---------------------------------------------------------------|
|-3---------------------------------------3-----------------------------------------|

|---------3-6-6-3-----------3-6-5-3---0-6p5p3---------------------------------------|
|-1-1-3/5-------3---0-1-3/5---------5---------6p5p3-----------3-----------0---------|
|-0---------------0-1-------------------------------5p3p0-3-4-------------0---------|
|-2---------------0-2---------------------------------------------------0-----------|
|-3-----------------3-------------------------------------------5-5-5/7-------------|
|-----------------------------------------------------------------------------------|

|-----7-------------6------------3-5-3h5p3--3---------------------------------------|
|----5--8--8-5-----5--8--8-5-3/5--------------6p5-3---------------3----3------------|
|---6-------------6---------------------------------5-0-3-4---0-6-5----5------------|
|--5-------------5------------------------------------------5-0-5-4----4-0----------|
|---------------0-----------------------------------------------x-x------0----------|
|-5-------------------------------------------------------------6-5--5--------------|

|-----------------------------------------------------------------------------5-5---|
|---------------------------------------------------------------------5-5-8-8-------|
|-----4-4-5-5-6-6-7-7-6-6-5-5-4-4-----4-4-5-5-6-6-7-7-6-6-5p4-----5-5---------------|
|-5-5-----------------------------5-5-------------------------5-5-------------------|
|-----------------------------------------------------------------------------------|
|-----------------------------------------------------------------------------------|

|-6-6-5-5--------------------------------------------7------------6------------3-5--|
|---------8-8-5-------------------3h5-----3---------5--8--8-5----5--8--8-5-3/5------|
|---------------0-----4-4-5-5-6-6-----3-4----------6------------6-------------------|
|-----------------5-5-----------------------------5------------5--------------------|
|-------------------------------------------5/7---------------0---------------------|
|------------------------------------------------5----------------------------------|

|-3h5p3--3-----------3---------------6--6-3--3-----------6--6-3--3-----------6--6-3-|
|----------6p5-3-----3-----------3-3-----------6--6-3--------------6--6-3-----------|
|----------------5-0---x-4---6-5-5----------------------------------------4---------|
|----------------------x-5-x-5-4-4---------------------5----------------------------|
|------------------------5-x-x-x----------------------------------------------------|
|------------------------3---6-5----------------------------------------------------|

|-3-----------------------------------3-6b-6-3-----------3-6-5-3---0-6p5p3----------|
|---6b-6b-6b-6br-3------------1-1-3/5--------3---1-1-3/5---------5---------6p5p3----|
|------------------5--3-4-----0----------------0-0----------------------------------|
|-------------------------5-0-2----------------0-2----------------------------------|
|-----------------------------3------------------3----------------------------------|
|-----------------------------------------------------------------------------------|

|-----------------------------7------------6------------3---------------------------|
|-----------3-----------0----5--8--8-5----5--8--8-5-3/5-----5-6-7--8-9-10--11--12\--|
|-5p3p0-3-4-------------0---6------------6----------------x-4-5-6--7-8--9--10--11\--|
|---------------------0----5------------5-----------------x-5-6-7--8-9-10--11--12\--|
|-------------5-5-5/7------------------0--------------------5-6-7--8-9-10--11--12\--|
|-------------------------5---------------------------------------------------------|
Добавлено: 25.12.2015
Вам также может быть интересно:
Другие материалы по этой песне:
  • Аккорды и текст

Страница создана 25.12.2015
http://primanota.ru/lonnie-johnson/swingin-blues-chords.htm
Привет, Гость.
Предлагаем пройти революционный курс по гитаре.
Подарок от PrimaNota.Ru, забирай!