PrimaNota.ru - самый крупный в мире бесплатный архив песенных текстов, аккордов, табулатур и нот


Lonlonjp - Wind - таба, видео

Регистрация Запомнить меня
Войти через:  Facebook Google Twitter Vk Yandex Mail.ru

Lonlonjp - Wind - таба, видео

Печатать
Просмотров: 139
Уроки эстрадного вокала в Санкт-Петербурге
Naruto - Wind by Akeboshi
Arranged by lonlonjp

Tuning: Drop D (DADGBE)
Capo=1

Ver. 1.00

E||---2---------0--2--5-------------------------0---------|
B||-----------------------------2---------0--2------------|
G||*------------------------------------------------------|
D||*-------0-------------------------0--------------------|
A||---2---------4----------0--------------4-----2----0----|
D||-------------------4---------5-------------------------|

--2---------0--2--5-----------------------------------||
----------------------------2---------0----2----------||
-----------------------------------------------------*||
-------0-------------------------0-------------------*||
--2---------4----------0--------------4----2----0-----||
------------------4---------5-------------------------||

^ ^
---2-------2--0--2--5----------------------------0---------|
--------------------------------2-------3--0--2-------0----|
*-------4----------------------------0---------------------|
*-------4-----------------0----------0-------------- ------|
---2----------------------0---------------------------0----|
--------------------4-----------5----------------0---------|

^ ^
--2-------2--0--2--5-------------------------------------||
-------------------------------2---------0----2----------||
-------4----------------------------0-------------------*||
-------4-----------------0----------0--------------0----*||
--2----------------------0-------------------------0-----||
-------------------4-----------5--------------0----------||

^
--2--------------------------------0--1p--0----------0----|
-------5----3--3--------------3--------------3------------|
------------------4p--2-----------------------------------|
-------4--------------------------------------------------|
--2-----------------------------------0---------2---------|
---------------4---------5--------------------------------|

--5--0--2p--0-----------------0--2p--0----------------------|
---------------3---------3--------------3-------3----5--2h--|
-------------------------0----------------------------------|
--4------------------------------0--------------4-----------|
-------------------------------------------2----------------|
--------0-----------5-----------------------------------5---|

----------------------------------------------------0----|
--0----------0---------------------3----0--3--2--3-------|
-----2------------2--2--2--2-----------------------------|
-------------0-----------------------------4-------------|
------------------------------0----2---------------------|
--------5------------------0---------------------4-------|

-----------------------------|
-------0---------------------|
------------2--2--2--2-------|
-------0---------------------|
------------------------0----|
--5------------------0-------|

--2------------2--5-------------------------0---------|
------------5---------------2---------0--2------------|
------------------------------------------------------|
-------4-------------------------0--------------------|
--2--------------------0-------------------------0----|
------------------4---------5---------------0---------|

--2------------2--5----------------------------------|
------------5---------------2---------0----2---------|
-----------------------------------------------------|
-------4-------------------------0-------------------|
--2--------------------0------------------------0----|
------------------4---------5--------------0---------|

--1----0--------------------------------0--2---------|
------------3----3--------------3--3-----------------|
----------------------2---------0--0-----------------|
-----------------------------------------------------|
------------------------------------------------0----|
--0--------------4---------5---------------0---------|

--2-------2-------2----0-----------------------2---------|
-------5-------5-----------------3p--0--3p--0------------|
---------------------------------------------------------|
----------4----------------------0-----------------------|
--2--------------------0----------------------------0----|
------------------0---------5------------------0---------|

--2----5--5-----5--5---------0------------------2---------|
------------------------3---------3p--0--3p--0------------|
----------------------------------------------------------|
----------4-----------------------0-----------------------|
--2---------------------0----------------------------0----|
-------------------0---------5------------------0---------|

--2-------2-------2----0----0----------------------------|
-------5-------5-----------------3p--0--3p--0--3---------|
---------------------------------------------------------|
----------4----------------------0-----------------------|
--2--------------------0----------------------------0----|
------------------0---------5------------------0---------|

|-------------2----------------------------------------|
|---0---------3--------------0----0--------------------|
|*---------------------------0----0----2--2------------|
|*-------4-----------------------------4--4------------|
|---2-------------------0-------------------------0----|
|------------------4---------5---------------0---------|

^
------------2---------2----3----3----2--2------------|
--0---------3---------3----3----3----3--3------------|
---------------------------4----4--------------------|
-------4---------------------------------------------|
--2--------------0----0-------------------------0----|
---------------------------5---------------0---------|

------------2----------------------------------------|
--0---------3--------------0----0--------------------|
---------------------------0----0----2--2------------|
-------4-----------------------------4--4------------|
--2-------------------4-------------------------0----|
-----------------4---------5---------------0---------|

--------------------------------------------------------||
--------------0-----------------------------------------||
---------2----0----2------------0----------------------*||
--4-------------------0---------------0-----0-------0--*||
--2--------------------------------------4--------------||
--------------0--------------5-----0-----------0--------||

-------------------------------------------------------|
--------------0----------------------------------------|
---------2----0----2-----------------------------------|
--4-------------------0---------0-----0-----0----------|
--2--------------------------------------4----------0--|
--------------0--------------5-----0-----------0-------|

^
----------------------------------------------------|
-------0------------------------3---------2----2----|
-------0---------2--------------4---------2----2----|
-----------------4-------------------4--------------|
------------2--------------4----2--------------0----|
--5----2--------------4-----------------------------|

^ ^
|--3--|
------------------------------------------0h----2-------|
-------0------------------------3------------------2----|
-----------------2---------2----------------------------|
--2--------------4-------------------2------------------|
------------2--------------4----2------------------0----|
-------2--------------4---------------------------------|

------------------------------------------0---------|
-------0----2-------------------3--------------2----|
---------------2-------------------------------2----|
--2----------------------------------4--------------|
---------------------------4----2--------------0----|
-------2--------------4-----------------------------|

^ ^
-----------------------------------------------0----|
-------0------------------------2----2----3----2----|
-----------------2---------2----2----2----4----2----|
--2--------------4----------------------------------|
------------2--------------4----0---------2----0----|
-------2--------------4-----------------------------|

------------------------------------------------------|
--3----2--3----2--3----2----2----0--------------------|
--------------------------------------2--2--2--2------|
----------4-------------------------------------------|
--2---------------------------------------------------|
------------------4--------------5-------------0------|

------------------------------------------------------|
-------3----2--3----2--3----2----2---------0----------|
----------------------------------------------2--2----|
---------------4--------------------------------------|
--0----2----------------------------------------------|
-----------------------4--------------5---------------|

^
------------------------------------------------------|
-------------------3----5----2p--0-------0--0---------|
--2---------------------------------2------------2----|
-------------------4----------------------------------|
-------0------2---------------------------------------|
--0--------------------------5-----------5------------|

----------------------------------------------------|
---------------------3-------------2--------0-------|
--2------------------4-------------2----------------|
-------4----------------------------------------0---|
----------------2-----------------------------------|
--0---------------------------4-------------5-------|

----------------------------------------------------|
---------------------------3----2---------2----0----|
--2------------------------4----2---------2---------|
------------4--------------4------------------------|
-----------------0----2-----------------------------|
-------0-----------------------------4---------0----|

--------------------------------------------------------|
--2p--0-----------------------------3----2---------2----|
---------2--------------------------4----2---------2----|
------------4--2--4-----------------4-------------------|
--------------------------0----2------------------------|
---------------------0------------------------4---------|

--------------------------------------------------------|
--0----2p--0-----------------------------3---------2----|
--------------2--------------------------4--------------|
-----------------4--2-------------------------4---------|
-----------------------4-------4----2-------------------|
--0-----------------------4------------------------0----|

-----------------------------------------------------|
------------0----0----0--------------------3----3----|
-------2----0--------------2--2------------4----4----|
--2-----------------------------------4--------------|
---------------------------------0---------2---------|
------------5----------------------------------------|

--------------------------------------------------|
--3----3----3----3----3----3----3----3------------|
--4----4----4----4----4----4----4----4------------|
------------0----2----4----4----4----4------------|
-------2------------------------------------------|
--------------------------------------------------|

|-------------2--------------------------------------------|
|---0---------3--------------0-----0-----------------------|
|*------------4--------------0-----0------2---2------------|
|*-------4--------------------------------4---4------------|
|---2-------------------0-----------------------------0----|
|------------------4---------5-------------------0---------|

------------2---------2----3----3----2--2-------------||
--0---------3---------3----3----3----3--3-------------||
---------------------------4----4--------------------*||
-------4---------------------------------------------*||
--2-------------------0-------------------------0-----||
-----------------0---------5---------------0----------||

|-------------2--------------------------------------------|
|---0---------3--------------0-----0-----------------------|
|*------------4--------------0-----0------2---2------------|
|*-------4--------------------------------4---4------------|
|---2-------------------0-----------------------------0----|
|------------------4---------5-------------------0---------|

---------------------------------------------------------||
-------------0-------------------------------------------||
*-------2----0----2------------0------------------------*||
*--4-----------------0---------------0-----0-------0----*||
---2------------------------------------4----------0-----||
-------------0--------------5-----0-----------0----------||

--------------------------------------------------------------------------------|
--------------------0-----------------------------------------------------------|
-----------2--------0--------2----------------------0---------------------------|
--4-------------------------------0---------------------------0---------0-------|
--2----------------------------------------------------------------4------------|
--------------------0--------------------------5---------0--------------------0-|
Добавлено: 10.04.2012
Другие материалы по этой песне:
  • Аккорды и текст

Страница создана 10.04.2012
http://primanota.ru/lonlonjp/wind-chords.htm
Привет, Гость.
Предлагаем пройти революционный курс по гитаре.
Подарок от PrimaNota.Ru, забирай!