PrimaNota.ru - самый крупный в мире бесплатный архив песенных текстов, аккордов, табулатур и нот


Lonlonjp - The Decisive Battle - таба, видео

Регистрация Запомнить меня
Войти через:  Facebook Google Twitter Vk Yandex Mail.ru

Lonlonjp - The Decisive Battle - таба, видео

Печатать
Просмотров: 107
     S S S S S S S S S S S S S S S S    S S S S S S S S S S S S S S S S  
E||--0-----1-----2-----1-----0-------|--0-----1-----2-----1-----0-------|
B||----1-----1-----1-----1-----1-0-3-|----1-----1-----1-----1-----1-0-3-|
G||------2-----2-----2-----2---------|------2-----2-----2-----2---------|
D||----------------------------------|----------------------------------|
A||--0-------------------------------|--0-----0-------------------------|
E||----------------------------------|----------------------------------|


    S S S S S S S S S S S S S S S S      E  E  S E  E  S  E  E  E   
|---0-----1-----2-----1-----0--------||-----0----------------------|
|-----1-----1-----1-----1-----1-0-3--||--------3-1--0--1h-3--0-----|
|*------2-----2-----2-----2---------*||--2----------------------0--|
|*----------------------------------*||----------------2-----------|
|---0-----0-----0-----0-----0--------||----------------------------|
|-------------------------------3----||--1-----3----0--------3--0--|


  Q    Q    Q    Q       E  E  S E  E  S  E  E  E     E.  E.  E.  E.  E  E   
-----------------0----|-----0----------------------|------------------------|
-------0----1----1----|--------3-1--0--1h-3--0-----|------------------------|
--2----0----2---------|--2----------------------0--|--2---------------------|
--2--------------2----|----------------2-----------|--2---------------------|
--0----2----3---------|----------------------------|--0---0---0---0---0-----|
----------------------|--1-----3----0--------3--0--|---------------------3--|


  E.  E.  E.  E.  E  E     S S S S S S S S S S S S S S S S  
------------------------|--0-5-7-8-7-5-0-------------------|
------------------------|------------------0-----------0---|
------------------------|----------------5-----5-----5---5-|
------------------------|------------------------7---------|
--0---0---0---0---0-----|--0-----0-----0-----0-----0-------|
---------------------3--|------------------------------3---|


  E  S E  S S S S S S S E  E     S S S S S S S S S S S S S S S S  
-----0----0---0-1-----0-5--4--|----0-8-7-5-0---------------------|
--3----1----3-----0-1---------|------------------0-----------0---|
------------------------------|--------------5-------5-----5---5-|
------------------------------|--7-------------7-------7---------|
------------------------------|--0-----0-----0-----0-----0-------|
--1----1----1-----0-----0--0--|------------------------------3---|


  E  S E  S S S S S  S S S S  S S    E.  E.  E  E.  E.  E   
-----0----0---0-1---------------0-|--1---------------------|
--3----1----3--------------0h-1---|--1-------1--0---1---3--|
-------------------------2--------|--2-------2--0---2------|
-----------------------2----------|-----------------0------|
------------------2h-3------------|---------------------2--|
--1----1----1-----0---------------|--1---1------3----------|


  E.  E.  E  Q    Q       E.  E.  E  E.  E.  E     Q    Q    Q    Q     
--0---1---3------------|------1-----------------|-----------------0----|
--1---1------1----0----|------1---1--0----------|-------0----1----1----|
-------------0----0----|--2-------2--0---2---0--|--2----0----2---------|
------0---2------------|--3--------------0------|--2--------------2----|
--3----------3---------|---------------------2--|--0----2----3---------|
------------------3----|--1---1------3----------|----------------------|


  E.  E.  E  E.  E.  E     E.  E.  E  E.  E.  E     H        S S S S S S S S  
--1---------------------|--0---1---3--2---3---5--|--8--------L-5-------------|
--1-------1--0---1---3--|--1---1-----------------|---------------8-6---------|
--2-------2--0---2------|------------------------|-------------------5---0---|
-----------------0------|------0---2--0----------|---------------------7---3-|
---------------------2--|--3--------------0------|--8------------------------|
--1---1------3----------|---------------------2--|---------------------------|


  W                   E.  E.  E  E.  E.  E     E.  E.  E  S S S S S S S S  
-------------------|-----------------1------|--0---3---0----1-0-----------|
-------------------|--0---3---0--3---3---3--|--1---1---1--------3-1-0-----|
--5----------------|--0---0---0--0-------0--|-------------------------2-1-|
-------------------|------------------------|-----------------------------|
-------------------|-------------2---2---2--|--3---3---3--3---------------|
-------------------|--3---3---3-------------|-----------------------------|


  W                  
-------------------||
-------------------||
--2----------------||
--2----------------||
--0----------------||
-------------------||
Добавлено: 04.12.2013
Другие материалы по этой песне:
  • Аккорды и текст

Страница создана 04.12.2013
http://primanota.ru/lonlonjp/the-decisive-battle-chords.htm
Привет, Гость.
Предлагаем пройти революционный курс по гитаре.
Подарок от PrimaNota.Ru, забирай!