PrimaNota.ru - самый крупный в мире бесплатный архив песенных текстов, аккордов, табулатур и нот


Lonlonjp - Melodies Of Life - таба, видео

Регистрация Запомнить меня
Войти через:  Facebook Google Twitter Vk Yandex Mail.ru

Lonlonjp - Melodies Of Life - таба, видео

Печатать
Просмотров: 168
Melodies Of Life (lonlonjp version)

arranged by lonlonjp and Hikaru

Composer: Nobuo Uematsu
Game: Final Fantasy IX
Copyright: 2000 Square Enix Co., Ltd. (Tab Copyright - ThulsaDoom of GameTabs.com)

Tuning : Standard
Capo: 2

Tab by ThulsaDoom

Date: 01/02/11

Note: If you wonder why there are some harmonics in my transcription
that you won't find in his new video is only because I've taken them from his first video
and I liked it better this way.So you can decide for yourself
if you want to play with the harmonics or not.


                      TH                           TH
     E  E  E  E  E    Q    S  S    E  E  E  Q      Q    S  S
E||--2-----0--------------------|-----------------------0h-2-|
B||-----3-----2--3--<>3----0h-2-|--3--2--0-------------------|
G||--2-----2-----4--------------|--0--------2----<>2---------|
D||--0-----------4--------------|-----------2----------------|
A||-----------------------------|----------------------------|
E||-----------------------------|--0--------2----------------|


                                   ^
  E  E  E  E  E  E  E  E     E  E  Q    E  E  E  E     E  E  E  E  E  E  E  E
--3--2-----2--0-----2-----|-------------------------|--0-----0-----------------|
--------3--------------3--|--------5----------------|--3-----3-----3-----3-----|
-----------------2--------|--------3----3--2--0-----|-----2-----2-----2-----2--|
--------------------------|--------5-------------4--|--0-----------------------|
--------------------------|-----5-------------------|--------------------------|
--0-----------2-----------|--3----------------------|--------------------------|


  E  E  E  E  Q.     E     E  E  E  E  E  E  E  E     E  E  E  E  E  E  E  E
--0-----0---------------|--2-----2--0--------------|-----------0--------------|
--3-----3-----3---------|--------------3-----3--2--|--0--2--3-----------------|
-----2-----2---------2--|-----2--------------------|--------------2--------2--|
--0---------------------|--0--------------4--------|--------------------4-----|
------------------------|-----------4--2--------0--|-----------------4--------|
------------------------|--------------------------|--3-----------2-----------|


  E  E  E  E  E  E  E  E     E  E  E  E  E  E  E  E
-----------------------2--|--3--2-----2--0--------2--|
--0--2--3--0--0-----3-----|--0-----3-----3-----2-----|
-----------------2--------|-----------------0--------|
--------------0-----------|--------------------------|
--------------------------|--------------0-----------|
--3-----------------------|--0-----------------------|


                     ^               ^
  E  E  E   E  E  E  E  E     E  E.  S. S. E  E  E  S  S
--5-----5s--7--5--3--3--2--|--2--0---0--2--3--------2p-0-|
-----2---------------3-----|---------0-----------3-------|
-----2---------------2-----|---------0--------3----------|
---------------------------|-----------------------------|
---------------2-----------|-----------------------------|
--2------------------------|--0------------3-------------|


  ^                                   ^
  Q.     S S E  E  E  S S    E  E  E  Q    E  E  E     Q    E  Q    E  E  E
------------------------0-|--2-----3--0-------------|------------------------|
--3--------0-3--------3---|--------0--0-------------|------------------------|
--2------2---------4------|-----------0-------------|------------------0--2--|
--0-------------4---------|-----0----------0--------|------------------2-----|
-------------2------------|-------------------4--2--|--4----2--0----4--------|
--------------------------|--3--------0-------------|------------------------|


  E  E  E  E  E  E  E  E     E  E  E  E  E  E  E  E
--2-----2--0--------------|-----------0--------------|
--------------3-----3--2--|--0--2--3--0--------------|
-----2-----------------2--|--0--2--4-----2--------2--|
--0--------------4--------|--------------------4-----|
-----------4--2--------0--|-----------------4--------|
--------------------------|--3-----------2-----------|


  E  E  E  E  E  E  E  E     E  E  E  E  E  E  E  E
-----------------------2--|--3--2-----2--0--------2--|
--0--2--3--0--0-----3-----|--0-----3-----3-----2-----|
--0--2--4--0-----2--------|-----------------0--------|
--------------4-----------|--------------------------|
--------------5-----------|--------------0-----------|
--3-----------------------|--0-----------------------|


                     ^               ^
  E  E  E   E  E  E  E  E     E  E.  S. S. E  E  E  S  S
--5-----5s--7--5--3--3--2--|--2--0---0--2--3--------2p-0-|
-----2---------------3-----|---------0-----------3-------|
-----2---------------2-----|---------0--------3----------|
---------------------------|-----------------------------|
---------------2-----------|-----------------------------|
--2------------------------|--0------------3-------------|


                                  ^
  E  E  E  S S E  E  S S  S  S    Q    S S S S S S S S S S S S
-----------------------0h-2p-0-|-------------------------------|
--3----------0-3---------------|--3------------0-----0-2-----2-|
-----------2-------------------|--2----2-----2-----0-------2---|
--------0------------0---------|--0--------0-----0-------2-----|
-------------------------------|-------------------------------|
-----2------------3------------|---------2-----0-------2-------|


                             ^
  E  E  E  E  E  E  E  E     S  S Q    E  E  E  E  E
--------------3--2--0-----|-------0-------------------|
--------0--------------3--|--2h-3------------------2--|
--------0-----4--2--0-----|--2------------------2-----|
-----0-----0-----------4--|--2---------------2--------|
--------------------------|--0---------0--0-----------|
--3-----------------------|---------------------------|


              ^
  E  E  E  E  E  E  E  E     S S Q    E  E  E  E  E     Q    Q    Q    S S S S
-----------2--5--3--2--0--|----0-2----------------2--|--3----2----0------------|
--------2-----2-----------|--4-----------------------|--0----0----0--------0---|
--------2-----2--4--2--0--|------2-------------4-----|------------0------0---0-|
-----2--------------------|--4--------------4--------|--2----0-----------------|
--------------------------|--2--------2--2-----------|------------3----3-------|
--2-----------2-----------|--------------------------|-------------------------|


     ^                                         ^
  E  E  E  E  E  E  E  E     E  E  E  E  E  E  E  E
-----2--3--2--------------|--2-----------------5--3--|
-----1--------5--3--2--3--|-----0--0--0--0--0--0-----|
-----0--------------------|-----0--0--0--0--0--0-----|
--------------4-----------|--------------------------|
--0-----------2-----------|--------------------------|
--------------------------|--3-----------3-----------|


  E  E  E  E  S S S S S S S S    E  E  E  E  E  E  E  E
--0-----------------------2-3-|--------0--2--------------|
--0--0--0--0------0-2-3-5-----|--3-----------2--------2--|
--0--0--0--0--0-2-------------|-----2--------------2-----|
------------------------------|--0--------------4--------|
--0-----------0---------------|--------------------------|
------------------------------|--------------2-----------|


  ^
  E  E  E  E  E  E  E  E     E  E  E  E  E  Q    E
--------------------------|--3--2--2--0--0----------|
--2--3--2-----0--------0--|--0--------------3----0--|
--2--------2--------0-----|----------------------0--|
-----------------0--------|--------------0--4----0--|
--------------------------|-------------------------|
--3-----------3-----------|--0----------------------|


  ^
  S  S Q    E  E  E  E  E     E  E  E  E  E  Q    S S
---------------------------|--------0--2--5-------2---|
--2h-3-5-------------------|--3---------------------2-|
--2------------------2-----|-----2-----------2--------|
--2---------------2-----2--|--0-----------------------|
--0---------0--0-----------|--------------------------|
---------------------------|--------------2-----------|


  ^
  E  E  S  S E  E  E  E  E     E  E  E  E  E  E  E  E
----------------------------|--3--2--2--0--0--------0--|
--0----------------0--2--3--|--0--0--0--0--0-----------|
--0-----2p-0-------0--2--4--|--0-----------------0-----|
--0--0-------0--------------|-----------------2--------|
----------------------------|--------------------------|
--3-------------3-----------|--0-----------0-----------|


                                                       ^
  E  E  E  E  E  Q    S  S    Q    S S S S S S S S S S E
--5--3--3--2--2--0----2h-3-|--5---------------------------|
--5--5--5--3--3--2----3h-5-|--5---------------------------|
--5------------------------|--0------------------------2--|
---------------------------|-------------------0-2-4-5-5--|
--3------------------------|--0----------0-2-4---------0--|
---------------------------|-------0-2-3------------------|


                           ^
  Q.     E  E  E  E  E     Q.     E  E  E  E  E     E  E  E  E  E  S E.  E
---------2--3--2-----0--|--0---------------------|--------------------------|
------------------2-----|--3------3--3-----------|--0-----------------------|
--L---------------------|--2---------2--------2--|--0-----0-----------------|
--L---------------------|--0---------0--2--4-----|--0--0-----0--2--0--------|
--L---------------------|------------------------|-------------------4---2--|
------------------------|------------------------|--0-----------------------|


  E  E  E  E  E  E  E  E     E  E  E  E  E  E  E  E
--------------------0-----|--------------------------|
-----------------------3--|--------2-----0-----------|
--2-----------2-----------|--------4-----------2-----|
--------4--------4--------|-----4-----4-----4-----4--|
-----4-----4--------------|--2-----------0-----------|
--2-----------------------|--------------------------|


  E  E  E  E  E  E  E  E     S  S E  E  S  S E  E  E  E
--------2-----5-----2--0--|------------------------------|
--0-----0-----0-----------|--5p-3-2-----2h-3-5--3--2--0--|
-----0-----0-----0--------|--2---------------------------|
--------------------------|------------------------------|
--------------------------|------------------------------|
--3-----------------------|--2-------2-------------------|


              ^     NH                           TH
  E  E  E  E  E     Q    S  S    E  E  E  Q      E.  S S S
------------------------------|----------------------------|
--3-----2-----0--<>12---------|--0-----------------------2-|
-----4-----2--0--<>12----0h-2-|-----2--0--2----<>2-----4---|
--4-----2-----0---------------|--0--------2----------4-----|
------------------------------|----------------------------|
------------------------------|--0--------2----------------|


                                         ^
  E  E  E  E  E  E  E  E     E  E  E  E  E  S  S E  S S
-----------2--3--------2--|--0--------------------------|
--3--2--3--3--0-----0--0--|--0--0--0--0--3--2p-0--------|
--4--4--4--4-----0--0-----|--0--0--0--0--4-------2--0---|
-----------------0--------|--------------5------------4-|
--2--2--2-----------------|--0-----------0--------------|
--------------0-----0-----|-----------------------------|


  E  Q     S  E  S E  S E.     T  T  T  T E.  S  S  S S S S S E  E
----------10-10--9-9--5-5---|--5h-7p-5p-3-5-------------------------|
-----3-----7--7-------3-3---|-----------------3p-2h-3---3---3-------|
-----2-----------9-9--------|-------------------------2---0------2--|
--4-------------------------|---------------------------------4-----|
--5-------------------------|---------------------------------------|
----------------------------|---------------------------------------|


  E  E  E  E  E  E  E  E     E  E  E  E  E  E  E  E
--2-----2--0--------------|-----------0--------------|
--3-----------3-----3--2--|--0--2--3--0--------------|
-----2-----------------2--|--0--2--4-----2--------2--|
--0--------------4--------|--------------------4-----|
-----------4--2--------0--|-----------------4--------|
--------------------------|--3-----------2-----------|


  E  E  E  E  E  E  E  E     E  E  E  E  E  E  E  E
-----------------------2--|--3--2-----2--0--------2--|
--0--2--3--0--0-----3-----|--0-----3-----3-----2-----|
--0--2--4--0-----2--------|-----------------0--------|
--------------4-----------|--------------------------|
--------------5-----------|--------------0-----------|
--3-----------------------|--0-----------------------|


                                     ^
  E  E  E   E  E  E  E  E     E  E.  S. S. E  E  E  S  S
--5-----5s--7--5--3--3--2--|--2--0---0--2--3--------2p-0-|
-----2---------------3-----|---------0-----------3-------|
-----2---------------2-----|---------0--------3----------|
---------------------------|-----------------------------|
---------------2-----------|-----------------------------|
--2------------------------|--0------------3-------------|


  E  E  E  S S E  E  S S  S  S    Q    S S S S S S S S S S S S
-----------------------0h-2p-0-|-------------------------------|
--3----------0-3---------------|--3------------0-----0-2-----2-|
-----------2-------------------|--2----2-----2-----0-------2---|
--------0------------0---------|--0--------0-----0-------2-----|
-------------------------------|-------------------------------|
-----2------------3------------|---------2-----0-------2-------|


                             ^
  E  E  E  E  E  E  E  E     S  S Q    E  E  E  E  E
--------------3--2--0-----|-------0-------------------|
--------0-----0--------3--|--2h-3---------------------|
--------0--------2--0-----|--2------------------2-----|
-----0-----0-----------4--|--2---------------2-----2--|
--------------------------|--0---------0--0-----------|
--3-----------------------|---------------------------|


              ^
  E  E  E  E  E  E  E  E     S S Q    E  E  E  E  E     Q    Q    Q    S S S S
-----------2--5--3--2--0--|----0-2----------------2--|--3----2----0------------|
--------2-----2-----------|--4-----------------------|--0----0----0--------0---|
--------2-----2--4--2--0--|------2-------------4-----|------------0------0---0-|
-----2--------------------|------2----------4--------|--2----0-----------------|
--------------------------|--2--------2--2-----------|------------3----3-------|
--2-----------2-----------|--------------------------|-------------------------|


     ^                                         ^
  E  E  E  E  E  E  E  E     E  E  E  E  E  E  E  E
-----2--3--2--------------|--2-----------------5--3--|
-----1--------5--3--2--3--|-----0--0--0--0--0--0-----|
-----0--------------------|-----0--0--0--0--0--0-----|
--------------4-----------|--------------------------|
--0-----------2-----------|--------------------------|
--------------------------|--3-----------3-----------|


  E  E  E  E  S S S S S S S S    E  E  E  E  E  E  E  E
--0-----------------------2-3-|--------0--2--------------|
--0--0--0--0------0-2-3-5-----|--3-----------2--------2--|
--0--0--0--0--0-2-------------|-----2--------------2-----|
------------------------------|--0--------------4--------|
--0-----------0---------------|--------------------------|
------------------------------|--------------2-----------|


  ^           ^              ^           ^
  E  E  E  E  E  E  E  E     E  E  E  E  E  Q    E
--------------------------|--3--2--2--0--0----------|
--2--3--2-----0--------0--|--0-----------0--3----0--|
--2--------2--0-----0-----|--0--2--2--0----------0--|
-----------------0--------|-----------------4----0--|
--------------------------|--------------5----------|
--3-----------3-----------|--0----------------------|


  ^
  S  S Q    E  E  E  E  E     E  E  E  E  E  E  E  E
---------------------------|--------0--2--5-----2-----|
--2h-3-5-------------------|--3--------------------2--|
--2------------------2-----|-----2-----------2--------|
--2---------------2-----2--|--0-----------------------|
--0---------0--0-----------|--------------------------|
---------------------------|--------------2-----------|


  ^
  E  E  S  S E  E  E  E  E     E  E  E  E  E  E  E  E
----------------------------|--3--2--2--0--0--------0--|
--0----------------0--2--3--|--0--0--0--0--0-----------|
--0-----2p-0-------0--2--4--|--0-----------------0-----|
--0--0-------0--------------|-----------------2--------|
----------------------------|--------------------------|
--3-------------3-----------|--0-----------0-----------|


                                                      ^
  E  E  E  E  E  Q    S S    Q    S S S S S S S S S S E
--5--3--3--2--2--0----2-3-|--5---------------------------|
--5--5--5--3--3--2----3-5-|--5---------------------------|
--5-----------------------|--0------------------------2--|
--------------------------|-------------------0-2-4-5-5--|
--3-----------------------|--0------------2-4---------0--|
--------------------------|-------0-2-3-0----------------|


                           ^
  Q.     E  E  E  E  E     Q.     E  E  E  E  E     E  E  E  E  E  S E.  E
---------2--3--2-----0--|--0---------------------|--------------------------|
------------------2-----|--3------3--3-----------|--0-----------------------|
--L---------------------|--2---------2--------2--|--0-----0-----------------|
--L---------------------|--0---------0--2--4-----|--0--0-----0--2--0--------|
--L---------------------|------------------------|-------------------4---2--|
------------------------|------------------------|--0-----------------------|


  E  E  E  E  E  E  E  E     E  E  E  E  E  E  E  E
--------------------0-----|--------------------------|
-----------------------3--|--------2-----0-----------|
--2-----------2-----------|--------4-----------2-----|
--------0--4-----4--------|-----4-----4-----4-----4--|
-----0--------4-----------|--2-----------0-----------|
--2-----------------------|--------------------------|


                                                   ^       ^      TH
  S S S S S S S S E  E  E  E     E  E  E  E  E  E  Q       Q      H.
--------------3-5-7-----5-----|--3-----2-----0----------|--5----<>5------------|
------------3--------------3--|-----0-----0-----0--3----|--5-------------------|
------0-2-4----------7--------|--------------------4----|--7-------------------|
----0-------------5-----4-----|--2-----0-----------5----|--0-------------------|
------------------------------|--------------3-----0----|----------------------|
--3---------------------------|-------------------------|----------------------|


  W
-------------------||
-------------------||
-------------------||
-------------------||
-------------------||
-------------------||




Duration Legend
---------------
W - whole
H - half
Q - quarter
E - 8th
S - 16th
T - 32nd
X - 64th
. - note dotted
|-n-|  - n-tuplets


Tablature Legend
----------------
L - tied note
x - dead note
g - grace note
(n) - ghost note
> - accentuded note
NH - natural harmonic
AH - artificial harmonic
TH - tapped harmonic
SH - semi harmonic
PH - pitch harmonic
h - hammer on
p - pull off
b - bend
br - bendRelease
pb - preBend
pbr - preBendRelease
brb - bendReleaseBend
\n/ - tremolo bar dip
\n - tremolo bar dive
-/n - tremolo bar Release up
/n\ - tremolo bar inverted dip
/n - tremolo bar return
-\n - tremolo bar Release down
S - shift slide
s - legato slide
/ -  slide into from below or out of upwards
\ -  slide into from above or out of downwards
~ - vibrato
W - wide vibrato
tr - trill
TP - tremolo picking
T - tapping
S - slap
P - pop
< - fade in
^ - brush up
v - brush down

(The Uploader neither claims this tab to be of his/her own works, but a better 
representation of the Song Title stated :) ..lonlonjp is an excellent musician and has "tabbed" 
this song to near perfection... Thanks goes to ThulsaDoom)
Добавлено: 04.03.2012
Другие материалы по этой песне:
  • Аккорды и текст

Страница создана 04.03.2012
http://primanota.ru/lonlonjp/melodies-of-life-chords.htm
Привет, Гость.
Предлагаем пройти революционный курс по гитаре.
Подарок от PrimaNota.Ru, забирай!