PrimaNota.ru - самый крупный в мире бесплатный архив песенных текстов, аккордов, табулатур и нот


Lonlonjp - Lost Woods Sarias Song - таба, видео

Регистрация Запомнить меня
Войти через:  Facebook Google Twitter Vk Yandex Mail.ru

Lonlonjp - Lost Woods Sarias Song - таба, видео

Печатать
Просмотров: 85
Lost Woods (Saria's Song) (lonlonjp version) (Legend of Zelda: Ocarina of Time) Guitar Tab

Video link - http://www.youtube.com/watch?v=BevB4e1-UU0

Composed by Koji Kondo
Arrangement by lonlonjp

Capo 5, standard tuning


     E  E  E  E  E  E  E  E     E  E  E  E  E  E  E  E   
e||-----0--2--------0--2-----|-----0--2--7--5-----2--3--|
B||--1-----------1-----------|--1-----------------------|
G||-----0--0--0-----0--0--0--|-----0--0--0-----0--0--0--|
D||--------------------------|--------------------------|
A||--3-----------3-----------|--3-----------3-----------|
E||--------------------------|--------------------------|


  E  E  E  E  E  E  E  E     E  E  E  E  E  E  E  E   
--2-----------------------|--------------------------|
-----3--0-----------------|--0--3--0-----------------|
-----------------------2--|--------------------------|
--0--0--0--0-----0--0-----|--0--0--0--0-----0--0--0--|
--------------2--------0--|--------------2-----------|
--------------------------|--------------------------|


  E  E  E  E  E  E  E  E     E  E  E  E  E  E  E  E   
-----0--2--------0--2-----|-----0--2--7--5-----2--3--|
--1-----------1-----------|--1-----------------------|
-----0--0--0-----0--0--0--|-----0--0--0-----0--0--0--|
--------------------------|--------------------------|
--3-----------3-----------|--3-----------3-----------|
--------------------------|--------------------------|


  E  E  E  E  E  E  E  E     E  E  E  E  E  E  E  E   
--7--2-----------------2--|--------------------------|
--------3-----------------|--3-----0-----------------|
--------------------------|-----2--------------------|
--0--0--0--0-----0--0-----|--0--0--0--0-----0--0--0--|
--------------2--------0--|--------------2-----------|
--------------------------|--------------------------|


  E  E  E  E  E  E  E  E     E  E  E  E  E  E  E  E   
-----------------0--2-----|--3--2--------------------|
-----0--1-----3-----------|--------0-----------------|
--2--------------2--2--2--|-----0--0--0-----0--0--0--|
-----2--2--2--0-----------|--------------------------|
--0-----------------------|--------------------------|
--------------------------|--0-----------0-----------|


  E  E  E  E  E  E  E  E     E  E   E  E  E  E  E  E   
--------0-----2--3--5-----|--7--8--10-----------------|
--1--3--------------------|---------------------------|
-----------------2--2--2--|-----0---0--0-----0--0--0--|
-----2--2--2--0-----------|---------------------------|
--0-----------------------|---------------------------|
--------------------------|--0------------0-----------|


  E  E  E  E  E  E  E  E     E  E  E  E  E  E  E  E   
-----------------0--2-----|--3--2--------------------|
-----0--1-----3-----------|--------0-----------------|
--2--------------2--2--2--|-----0--0--0-----0--0--0--|
-----2--2--2--0-----------|--------------------------|
--0-----------------------|--------------------------|
--------------------------|--0-----------0-----------|


  E  E  E  E  E  E  S S E     E  E  E  E  E  E  S S E   
--------0-----2--0--3-5-2--|--5--3--7--5--8--7--2-3-0--|
--1--0-----3---------------|---------------------------|
---------------------------|--0-----------0------------|
---------------------------|---------------------------|
--0-----------0------------|---------------------------|
---------------------------|---------------------------|


  E  Q    E  E  Q    E     E  E  E  E  Q    Q         E  E  E  E  E  E  E  E   
--2---------------------|-------------------------||-----0--2--------0--2----|
------------------------|-----0--0--0--0----0-----||--1-----------1----------|
--2---------------------|-------------------2----*||-----0--0--0-----0--0--0-|
-----4----4-----4----4--|-----1--1--1--1----1----*||-------------------------|
--2----------2----------|--2----------------2-----||--3-----------3----------|
------------------------|-------------------------||-------------------------|


  E  E  E  E  E  E  E  E     E  E  E  E  E  E  E  E   
-----0--2--7--5-----2--3--|--2-----------------------|
--1-----------------------|-----3--0-----------------|
-----0--0--0-----0--0--0--|-----------------------2--|
--------------------------|--0--0--0--0-----0--0-----|
--3-----------3-----------|--------------2--------0--|
--------------------------|--------------------------|


  E  E  E  E  E  E  E  E     E  E  E  E  E  E  E  E   
-----------------2--0--2--|--------------------------|
--0--3--0-----------------|--0--3--0-----------------|
--------------------------|--------------------------|
--0--0--0--0--------------|-----------------4--2--4--|
--------------3--3--3--3--|--2--2--2--2--0--0--0--0--|
--------------------------|--------------------------|


                             ^                                      
  E  E  E  E  E  E  E  E     W                 
--------------------------|-------------------||
--0--3--0-----------------|--3----------------||
--------------------------|--4----------------||
-----------------4--2--4--|--5----------------||
--------------------------|--2----------------||
--3--3--3--3--2--2--2--2--|--0----------------||

Legend:
S - Sixteenth Note
E - Eighth Note
Q - Quarter Note
W - Whole Note
Добавлено: 01.07.2013
Другие материалы по этой песне:
  • Аккорды и текст

Страница создана 01.07.2013
http://primanota.ru/lonlonjp/lost-woods-sarias-song-chords.htm
Привет, Гость.
Предлагаем пройти революционный курс по гитаре.
Подарок от PrimaNota.Ru, забирай!