PrimaNota.ru - самый крупный в мире бесплатный архив песенных текстов, аккордов, табулатур и нот


Lonlonjp - Loneliness - таба, видео

Регистрация Запомнить меня
Войти через:  Facebook Google Twitter Vk Yandex Mail.ru

Lonlonjp - Loneliness - таба, видео

Печатать
Просмотров: 111
Loneliness (lonlonjp version)

Composer:  Yasuharu Takanashi
Anime: Naruto

Tuning : Standard
Capo: 5th


e|---------0----|--1-----0--|--0--------|-------------------------------------------------------|
B|---1--3--1--1-|--3--0--1--|--0--3--0--|--0--1-------------------------------------------------|
G|------------2-|-----2-----|-----0--0--|--2--2--2----------------------------------------------|
D|---2--3-------|-----------|-----------|--------2----------------------------------------------|
A|---0--0--0----|--0--0--0--|-----------|-------------------------------------------------------|
E|--------------|-----------|--0--0--0--|--1--1--1----------------------------------------------|

e|------------------|---------------------------------------------------------------------------|
B|-------0-------1--|---------------------------------------------------------------------------|
G|------------------|-------0----2--------------------------------------------------------------|
D|----2-------2-----|-----2------------0--------------------------------------------------------|
A|-0-------0--------|--0------------------------------------------------------------------------|
E|------------------|---------1-----3-----------------------------------------------------------|

e|-----------0-------|--1--------0--------|--0----------------|---------------------------------|
B|--1----3--------1--|--------0--------1--|--------3--0-------|--0-----1------------------------|
G|-------4--------2--|--------2--------2--|--------0-----0----|--------2--2---------------------|
D|----2---------2----|-----3--------2-----|-----0-----------0-|-----------------3---------------|
A|--0--------0-------|--0--------0--------|-----------0-------|-----3--------3------------------|
E|-------------------|--------------------|--0----------------|--1--------1---------------------|

e|-------------0--------|--0h1--------0--------|----------------------|-------------------------|
B|--0h1-----3--------1--|----------0--------1--|--3\5-----3--0--------|----------1--------------|
G|----------4--------2--|----------2--------2--|----------0-----0-----|--2h4-----2--2-----------|
D|-------2--------2-----|-------3--------2-----|-------0-----------0--|-------------------3-----|
A|--0----------0--------|--0----------0--------|----------------------|-------3--------3--------|
E|----------------------|----------------------|--0----------0--------|--1----------1-----------|

e|--------1-----4-----5-----|--8--------7--------|--8-----7--5-----3--|--0--------1p0-----------|
B|--3-----------------------|--------5-----5-----|--------6--------0--|----------------3--------|
G|--2-----2-----4-----5-----|-----5-----------5--|-----5--------0-----|--------0-------------0--|
D|-----0-----0-----0-----0--|--------------------|-----------0--------|-----2-------------0-----|
A|--------------------------|--0--------0--------|--8-----------------|--3----------------------|
E|--------------------------|--------------------|--------------------|----------------3--------|

e|--------1-----4-----5-----|--8--------8p7--7--------|--8-----7--5-----3h5p3-------------------|
B|--3-----------------------|--------5----------5-----|--------6--------0-----------------------|
G|--2-----2-----4-----5-----|-----5----------------5--|-----5--------0--------------------------|
D|-----0-----0-----0-----0--|-------------------------|-----------0-----------------------------|
A|--------------------------|--0-------------0--------|--8--------------------------------------|
E|--------------------------|-------------------------|-----------------------------------------|

e|-------------0--------|--0h1--------0--------|----------------------|-------------------------|
B|--0h1-----3--------1--|----------0--------1--|--3\5-----3--0--------|----------1--------------|
G|----------4--------2--|----------2--------2--|----------0-----0-----|--2h4-----2--2-----------|
D|-------2--------2-----|-------3--------2-----|-------0-----------0--|-------------------3-----|
A|--0----------0--------|--0----------0--------|----------------------|-------3--------3--------|
E|----------------------|----------------------|--0----------0--------|--1----------1-----------|

e|----------------------------|
B|-----------1----------------|
G|--------2-------------------|
D|-----2----------------------|
A|--0-------------------------|
E|----------------------------|





************************************

| /   slide up
| \   slide down
| h   hammer-on
| p   pull-off
| ~   vibrato
| +   harmonic
| x   Mute note
| b   Bend
| pb  Pre-bend
| br  Bend release
| pbr Pre-bend release
| brb Bend release bend

************************************
Добавлено: 01.11.2015
Другие материалы по этой песне:
  • Аккорды и текст

Страница создана 01.11.2015
http://primanota.ru/lonlonjp/loneliness-chords.htm
Привет, Гость.
Предлагаем пройти революционный курс по гитаре.
Подарок от PrimaNota.Ru, забирай!