PrimaNota.ru - самый крупный в мире бесплатный архив песенных текстов, аккордов, табулатур и нот


Lonlonjp - Cloud Smiles - таба, видео

Регистрация Запомнить меня
Войти через:  Facebook Google Twitter Vk Yandex Mail.ru

Lonlonjp - Cloud Smiles - таба, видео

Печатать
Просмотров: 139
DISCLAIMER: I Do Not Own This Tablature or Music, and am not responsible for what you do with it.
Final Fantasy VII; Advent Children [Film]
Studio 	Square Enix
Distributed by 	Square Enix (Japan)
Sony Pictures (International)
Composer: Nobuo Uematsu
Title: Cloud's Smile
Composer: Nobuo Uematsu, Keiji Kawamori, Kenichiro Fukui, Tsuyoshi Sekito
Arranger: lonlonjp of YouTube
Game/Anime : Final Fantasy VII Advent Children
Album: Final Fantasy VII Advent Children Original Soundtrack
Platform: N/A
Transcriber: Darkyle99
Tuning: Standard (EADGBE)
Key: G?
Capo=0
Difficulty: M (Medium) According to lonlonjp

                                                             ^          
E||----------------------|----------------------|------------3---------|
B||--0----0----0----0----|--0----0----0----0----|--3---------0----0----|
G||--7----7----7----7----|--7----7----7----7----|--2----2----0----0----|
D||--7----7----5----5----|--7----7----5----5----|-------0--------------|
A||----------------------|----------------------|----------------------|
E||----------------------|----------------------|--3---------3---------|


  ^         ^              ^                                  ^           
------------3---2~---0--|----------------------|--------------3---2---0--|
--1----1----1-----------|--3---------0---------|---0----------1----------|
--0----0----0-----------|--2----2----0----0----|---0-----0----0----------|
------------------------|--4----4----4----4----|---2-----2---------------|
--0---------0-----------|--2-------------------|--------------0----------|
------------------------|----------------------|--(0)--------------------|


  ^                                ^                                      
-----------------5----|--3---------0---2---3--|--7-----------------------|
--3---------0----0----|--1----1----1----------|-----0-----0-----0-----0--|
--2----2--------------|--0----0----0----------|--------------------------|
--4----4----4----4----|------------0----------|--------0-----9-----5-----|
--2-------------------|--0--------------------|--------------------------|
----------------------|-----------------------|--3-----------------------|


                                                                  ^             
--------------------0----|--------------3-----------|-------------3---2~---0--|
--------0-----1-----1----|--3-----------------0-----|--------1----1-----------|
--2-----0-----2-----0----|--------2-----------0-----|--------0----0-----------|
--5----------------------|-----0-----0-----0-----0--|-----2-------------------|
-----0-----0-----0-------|--------------------------|--0----------0-----------|
-------------------------|--3-----------3-----------|-------------------------|


                                        ^                                      
--------------------------|-------------3---2~---0--|--------------------5----|
--3-----------0-----------|-------------1-----------|--3-----------------0----|
--------0-----------0-----|--------0----0-----------|--------0-----0----------|
-----4-----4-----4-----4--|-----2-------------------|-----4-----4-----4-------|
--2-----------2-----------|--3----------0-----------|--2----------------------|
--------------------------|-------------------------|-------------------------|


             ^                                                                
--3----------0---2---3--|--7--------------------5--|--3-----5-----8-----7----|
--------1----1----------|--------0-----0-----3-----|--1-----6-----6-----6----|
--------0----0----------|--------0-----0-----0-----|--0-----6-----5-----7----|
-----2-------0----------|-----0-----0-----0--------|-----0-----0-----0-------|
--0---------------------|--------------------------|-------------------------|
------------------------|--3-----------------------|-------------------------|


--7--------8--5-----------|--------5--7--8-----12----|
--------0-----------5-----|--------------------------|
-----0-----------5-----5--|-----5--------9-----12----|
--------------------------|--0--------------0--------|
--3-----------0-----------|--------------------------|
--------------------------|--------------------------|


--9-----------------10-----|--7-----------------------|
--------7-----7---------0--|--------0-----------0-----|
-----7-----7-----7---------|-----0-----0-----0-----0--|
---------------------------|--------------0-----------|
---------------------------|--------------------------|
--7------------------------|--0-----------------------|


--7--------8--5-----------|--------2--3--5-----------|
--------0-----------5-----|-----------------------8--|
-----0-----------5-----5--|-----2--------------5-----|
--------------------------|--0--------------7--------|
--3-----------0-----------|--------------6-----------|
--------------------------|--------------------------|


                                         ^                                      
--5--------7--7-----------|--------------0----------|--7--------8--5-----------|
--------0--------0-----0--|--------------1---3---0--|--------0-----------5-----|
-----0--------------0-----|--2--------0--2----------|-----0-----------5-----5--|
--------------4-----------|--------3----------------|--------------------------|
--------------------------|-----3--------0----------|--3-----------0-----------|
--0-----------------------|--1----------------------|--------------------------|


--------5--7--8-----12-----|--9-----------------10-----|
---------------------------|--------7-----7---------0--|
-----5--------9-----12-----|-----7-----7-----7---------|
--0--------------0------0--|---------------------------|
---------------------------|---------------------------|
---------------------------|--7------------------------|


                      NH                 ^              
--7-----------------<>7----|------------10-------------|
--------0--------0---------|--8------8---8----8--------|
---------------------------|-----11------9---------11--|
-----7-----7--6------------|---------------------------|
---------------------------|---------------------------|
--0------------------------|--8------------------------|


             ^                                                                 
------------12--------------|--7----------------8----|--5---------------------|
--8------8--10----------10--|------------------------|--------8----7----------|
-----11-----------12--------|--0-----0--7----0--8----|-----7-------------5----|
------------11--------------|-----4------------------|--0-------------7-------|
----------------------------|------------------------|-------------5----------|
--9-------------------------|------------------------|------------------------|


                       ^                            ^      
--10------7------------------|--10------7-----------------|
--12-----10-----10-----7--8--|--12-----10-----10----7--8--|
------0------0--12--0--7-----|------0------0--12----7-----|
---0-------------------0-----|---0------------------0-----|
-----------------------------|----------------------------|
-----------------------------|----------------------------|


----------------------------|--2-----3-----10------------|
--3-----0-------------------|------------------8------8--|
--------------2-----0-------|-----0-----0---------11-----|
-----4-----4-----4-----0h-2-|--0-------------------------|
--2-------------------------|--------3-------------------|
----------------------------|---------------8------------|

 
----------------------------|--2-----3-----10----------7--|
--3-----0-------------------|-----------------------0-----|
--------------2-----0-------|-----0-----0------(0)--------|
-----4-----4-----4-----0h-2-|--0--------------------------|
--2-------------------------|--------3--------------------|
----------------------------|---------------8-------------|


                     ^                                    
--12----------------14--15--|--14-----12-------------10--|
---------0-----0-----0------|----------------10----------|
------0-----0--------0------|------0------9--------------|
---------------------0------|---------11-----------------|
----------------------------|---0------------------------|
---0------------------------|----------------------------|

  
--12----------------14--15--|--19-----15-----14-----12----|
---------0-----0------------|-----------------------------|
------0-----0--------0------|------0------0------0--------|
---------------------0------|-----------------------------|
----------------------------|---0-------------------------|
---0------------------------|-----------------------------|


                          ^                           ^          ^         
--10---------7---------|----------------7-8-7p-5---|--7-------8--5---------|
-----------------------|--0----0----0------------8-|--6----6-----6----6----|
---7----7----7----7----|--7----7----0-----0--------|--7----7-----5----5----|
---7----7----5----5----|--7----7-------------------|--0----------0---------|
-----------------------|---------------------------|-----------------------|
-----------------------|---------------------------|-----------------------|


                                                        ^                     
--------------------5--7--|--5--------3--0-----------|------------0-------3--|
--0----0--1---------------|--------------------------|---------3-------1-----|
--------------2-----------|-----0--5-----------5-----|--5--------------0-----|
--3----3-----(3)----------|-----------------5-----5--|--5--------------0-----|
--------------0-----------|--3-----------3-----------|--5--------------------|
--------------------------|--------------------------|-----------------------|


--3-----------------0----|--10-----------15-----------|
--------0-----1-----1----|---------0------------0-----|
--------0-----2-----0----|------0-----0------0-----0--|
-----0-----0-----0-------|---0------------0-----------|
-------------------------|----------------------------|
--3----------------------|----------------------------|


              ^                                         
--------0----15---14---12--|--10-----------7-----------|
--------1------------------|---------7-----------7-----|
--------------0------------|------7-----7-----7-----7--|
-----2---------------------|---------------------------|
--0-----------0------------|---------------------------|
---------------------------|---7-----------7-----------|


              ^                                             ^        ^          
-------------15---14---12--|--10------------------------|--10--------0----3----|
--------0------------------|---------------------7--10--|---7--------1---------|
-----0--------0------------|---------------7--9---------|---7--------0---------|
---------------------------|---0--------7---------------|---7--------0---------|
--3-----------0------------|------7--9------------------|----------------------|
---------------------------|----------------------------|----------------------|


  ^                                   ^           ^                  
--3-----------------------|-----------3--------|--L----------------||
--0-----------------0--3--|--L--------0--------|--L----------------||
--0-----------0--2--------|-----------2--------|--L----------------||
-----------0--------------|--------------------|-------------------||
-----0--2-----------------|--------------------|-------------------||
--3-----------------------|-----------3--------|--L----------------||



© 2005 by Square-Enix Inc.
Добавлено: 02.06.2012
Другие материалы по этой песне:
  • Аккорды и текст

Страница создана 02.06.2012
http://primanota.ru/lonlonjp/cloud-smiles-chords.htm
Привет, Гость.
Предлагаем пройти революционный курс по гитаре.
Подарок от PrimaNota.Ru, забирай!