PrimaNota.ru - самый крупный в мире бесплатный архив песенных текстов, аккордов, табулатур и нот


Lonlonjp - Aerith Theme - таба, видео

Регистрация Запомнить меня
Войти через:  Facebook Google Twitter Vk Yandex Mail.ru

Lonlonjp - Aerith Theme - таба, видео

Печатать
Просмотров: 130
Transcribed by lonlonjp

Music by Nobuo Uematsu
Arranged by lonlonjp


Gtr I (E A D G B E) - 'Untitled'

  Q=90
 4/4
  Gtr I
  E E H.        E E H.        E E E E E E E E   H   H
|---0-5-------|-3-0---------|---0-5-4-7-5---4-|-0-------|
|-2---2-------|-0---0-------|-2-----------7---|-0---0---|
|-4-----------|-0---0-------|-4---------------|-0---0---|
|-2-----------|-------------|-2---------------|---------|
|-0-----------|-2-----------|-0---------------|-2-------|
|-------------|-------------|-----------------|---------|
  W             W             W                 H   H


  E E H.          E E H     +E  S S   H     E E E E   W
|---0-5---------|-3-0---------------|---------------|-----------------|
|-2---2---0-----|-0---0-----(0)---0-|-------1-0---0-|-----------------|
|-4----------2--|-0---0---------2---|-2---------2---|-2-------------2-|
|-2-------------|--------4---2------|----0--3-------|-----0-2-3-0-3---|
|-0-------------|-------------------|---------------|---0-------------|
|---------------|-0-----------------|-1-------------|-1---------------|
  Q   Q   Q  Q    Q   Q  Q   Q        Q  Q  H         E E E E E E E E


  W                 H.          E E   H.          E E   H.         E E
|-5---------------|-----------------|-----------------|-0----------2-4-|
|-2-------2-------|----------2----0-|-2-----------2-3-|----------2-3---|
|-----2---2---2---|------2---2--2---|------2---2--2---|------1---1-2---|
|---2---2---2---2-|----2---2--------|--------4--------|--------2---0---|
|-0---------------|-0-----------0---|----4--------4---|----4-----------|
|-----------------|---------------4-|-2---------------|-0--------------|
  E E E E E E E E   E  E E E Q  E E   E  E E E Q  Q     E  E E E Q Q


  Q   H      Q    S S Q.     Q  E E   H       H         H       Q   E E
|-5---2---------|-0-2-0---------0---|---------4-------|-2-------0---2-0-|
|-----3------3--|-2------0---2----2-|-----------------|-----------------|
|------------4--|-------------------|-1-----1-------1-|-------2---------|
|-----4-0-4--0--|-----2----2--------|-----2-------2---|-----2-------2---|
|---0-----------|-0-------------0---|---4-------4-----|---4-------4-----|
|-2-------------|-------------------|-0-------0-------|-0-------0-------|
  E E E E Q  Q    E   E  E E Q  Q     E E E E E E E E   E E E E E E Q


  H       H         H       Q   E E   H       H         H       Q   E E
|---------2-------|-0-----------0---|---------4-------|-2-------0---2-4--|
|-----------------|---------3-----2-|-----------------|------------------|
|-2-------------2-|-------2---------|-1-----1-------1-|-------1-----2----|
|-----2-4---2-4---|---2-4-----2-4---|---1-2-----1-2---|---1-2-----1------|
|---0-----0-------|-0-------0-------|-----------------|---------4--------|
|-2---------------|-----------------|-0-------0-------|-0----------------|
  E E E E E E E E   E E E E E E Q     E E E E E E E E   E E E E E E Q


  H.           Q   +Q    Q  Q  Q    H      Q   Q    Q   Q   Q   Q
|-5------0---5-5-|-(5)---5--4--2--|-0-------------|-----5---4---2---|
|------3---7---5-|-(5)---3--5--3--|-2------2---2--|-----7---5---3---|
|----2---------7-|-(7)------------|-2------4---4--|-----------------|
|-0--------------|-----0-4-----0--|------2---2----|---0-------------|
|----------------|--0-------------|-0--0----------|-0-----0---0---0-|
|----------------|----------------|---------------|-----------------|
  E  E E E E E Q    E  E H     Q    Q  E E E E Q    E E E E E E E E


  Q.    E H        Q   Q   Q   Q     H    H     H   Q  E E
|-4-----9-9------|-----5---4---2---|-0--------|----------0--|
|-2--------------|-----7---5---3---|-3----0---|-0------3-2--|
|-------------6--|-----------------|-2----2---|-2---1--4----|
|-2---------6----|-----------------|------2---|-0---2-------|
|----------------|---0---0---0---0-|-2----2---|-------------|
|-----0---0------|-2---------------|----------|-0---0-------|
  Q   Q   E E Q    E E E E E E E E   H    H     H   H


  E E E E +H          H      E E E E   H       H      Q  Q  Q  Q
|-2-0---------------|-----2--2-0-----|---------5----|----5--4--2-|
|-3-2-3-2-(2)-------|---3----3-2-2-3-|-2-----2------|------------|
|-----4-2-(2)-------|-2----------2-4-|-2---2--------|------------|
|-0-------(0)---0-4-|----------------|---2----------|------------|
|-------------0-----|--------0-------|-0------------|------------|
|-------------------|----------------|--------------|------------|
  H       +E  E E E   E E Q  H         E E E E H      W


  H    Q.   S S   E E E E +H       E E E E  E  E E E   E E H.
|-0-------------|----------------|---5-2-0-10----2---|---0-5-----|
|-3----0----0-2-|-3-2-0----------|------------10---3-|-2---2-----|
|-2----1--------|-2-----2-(2)----|-------------------|-4---------|
|------2--------|-0--------------|-0-----------------|-2---------|
|-2----4--------|----------------|----------0--------|-0---------|
|---------------|----------------|-------------------|-----------|
  H    H          W                H        H          W


  E E H.        E E E E E E E E   H    H      E E H.
|-3-0---------|---0-5-4-7-5---4-|-0---------|---0-5----------|
|-0---0-------|-2-----------7---|-0----0----|-2---2---0------|
|-0---0-------|-4---------------|-0----0----|-4----------2---|
|-------------|-2---------------|-----------|-2--------------|
|-2-----------|-0---------------|-2---------|-0--------------|
|-------------|-----------------|-----------|----------------|
  W             W                 H    H      Q   Q   Q  Q


  E E H     +E  S S   H     E E E E   W                 W
|-3-0---------------|---------------|-----------------|-5---------------|
|-0---0-----(0)---0-|-------1-0---0-|-----------------|-2-------2-------|
|-0---0---------2---|-2---------2---|-2-------------2-|-----2-------2---|
|--------4---2------|----0--3-------|-----0-2-3-0-3---|---2---2---2---2-|
|-------------------|---------------|---0-------------|-0---------------|
|-0-----------------|-1-------------|-1---------------|-----------------|
  Q   Q  Q   Q        Q  Q  H         E E E E E E E E   E E E E E E E E


                       Q=80
                       |-3-| |-3-| |-3-|
  W                 Q  E E E E E E E E E   H    Q.   S S   E  E E E +H
|-----------------|----5-----4-----2-----|-0-------------|----9-7-5-(5)----|
|---------2-------|--------2-----2-----2-|-3----0----0-2-|-3-10-9-7-(7)----|
|-----2-------2---|------2-----2-----2---|-2----1--------|-2---------------|
|---2---2---2---2-|----------------------|------2--------|-0---------------|
|-0---------------|----------------------|-2----4--------|-----------------|
|-----------------|----------------------|---------------|-----------------|
  E E E E E E E E   W                      H    H          W


  H    H       Q   H.
|------2-----|-5-----------||----|
|-3----0-----|-2---2-------||----|
|------2-----|-----4-------||----|
|-4----2-----|---2-2-------||----|
|-5----------|-0---0-------||----|
|---------0--|-------------||----|
  H    Q  Q    E E H.
Добавлено: 06.12.2013
Другие материалы по этой песне:
  • Аккорды и текст

Страница создана 06.12.2013
http://primanota.ru/lonlonjp/aerith-theme-chords.htm
Привет, Гость.
Предлагаем пройти революционный курс по гитаре.
Подарок от PrimaNota.Ru, забирай!