PrimaNota.ru - самый крупный в мире бесплатный архив песенных текстов, аккордов, табулатур и нот


Lonlonjp - 1000 Ad Peaceful Days - таба, видео

Регистрация Запомнить меня
Войти через:  Facebook Google Twitter Vk Yandex Mail.ru

Lonlonjp - 1000 Ad Peaceful Days - таба, видео

Печатать
Просмотров: 82
  Q  Q  Q  Q    Q  Q  Q  Q    E E E E H      H    Q  Q
|-3--1--0-----|-1--0--------|-----0--------|-------------|
|-0--------3--|-1-----3--1--|---3---3------|---------1---|
|-0-----------|-2-----------|-5------------|------2--2---|
|-0-----------|-0-----------|-0------------|-0----3------|
|-3--------L--|-0--------L--|---------0----|-------------|
|-------------|-------------|--------------|-------------|


  W            W               Q  Q  Q  Q    Q  Q  Q  Q
|------------|-------------||--------0-----|-1--0---------|
|-1----------|-0-----------||o-------------|-------3--1---|
|-2----------|-0-----------||--0-----0-----|-------0------|
|-3----------|-3-----------||-----2-----2--|--------------|
|------------|-------------||o-3-----------|-0------------|
|-3----------|-3-----------||--------------|--------------|


  Q  Q  Q  Q    Q  Q  Q  Q    Q  Q  Q  Q    Q  Q  Q  Q
|-3-----L-----|-------------|-------0-----|-1--0--------|
|----------3--|-3--------L--|-------------|-------3--1--|
|-------------|----------0--|-0-----0-----|-------0-----|
|-------0--3--|-------0-----|----2-----2--|-------------|
|----0--------|----2--------|-3-----------|-0-----------|
|-1-----------|-3-----------|-------------|-------------|


  Q  Q  Q  Q    Q  Q  Q  Q    Q  Q  Q  Q    Q  Q  Q  Q
|-3-----------|----L--5--7--|-8--L--7--5--|-------0-----|
|-------------|-0-----0-----|-------5-----|-8--------L--|
|----------0--|----0--------|----5-----5--|----0-----0--|
|-------2-----|-------------|-------------|-------------|
|----2--------|-------------|-0-----------|-------------|
|-0-----------|-------------|-------------|-0-----------|


  Q  Q  Q  Q    Q  Q  Q  Q    Q  Q  Q  Q    Q  Q  Q  Q
|-5--L--3-----|-0-----------|----------0--|-------------|
|----------6--|-------3-----|-1--0--1-----|-3--------L--|
|----5--------|----0-----0--|-------0-----|-------2--5--|
|-3-----------|-------------|----2-----2--|----4-----L--|
|-------------|-3-----2-----|-0-----------|-------------|
|-------------|-------------|-------------|-------------|


  Q  Q  Q  Q   Q  Q  Q  Q    Q  Q  Q  Q    Q  Q  Q  Q
|------------|----------3--|-5-----3--5--|-3--------L---|
|------------|-3-----L-----|-------------|-------3--6---|
|-5--------L-|-0-----------|----5--------|----4---------|
|----------0-|----3--2--0--|-3-----------|--------------|
|----0--2----|-------------|-------------|--------------|
|-3----------|-------------|-------------|-3--------L---|


  Q  Q  Q  Q    Q  Q  Q  Q    Q  Q  Q  Q    Q  Q  Q  Q
|-------0-----|----------0--|-1-----0-----|-------------|
|-6--------3--|-2-----3--2--|-3--------3--|-1-----3-----|
|----0--------|----2--2-----|----2--------|-2-----0-----|
|-------3-----|-3-----------|-0-----3-----|----0-----0--|
|-3-----1-----|-0-----------|-------------|-------------|
|-------------|-------------|-------------|-3--------L--|


  1.                          2.
  Q  Q  Q  Q    H    H        Q  Q  Q  Q    H.      Q
|-------------|------------||-------------|---------0--|
|-1-----------|------L----o||-1-----------|------L-----|
|----0-----0--|------0-----||-------0-----|------------|
|-------3-----|-2----------||----2-----3--|-2----------|
|-3-----------|------L----o||-3-----------|------L-----|
|-------------|------------||-------------|------------|


   Q  Q  Q  Q    Q  Q  Q  Q    Q  Q  Q  Q    S S H.
|-^1-----0-----|-------------|-------------|-----------|
|-^3--------3--|-1-----3-----|-1-----------|-----L-----|
|-----2--------|-2-----0-----|-------0-----|-----------|
|-^0-----3-----|----0-----0--|----2-----3--|-2h3p2-----|
|--------------|-------------|-3-----------|-----L-----|
|--------------|-3--------L--|-------------|-----------|
Добавлено: 29.07.2013
Другие материалы по этой песне:
  • Аккорды и текст

Страница создана 29.07.2013
http://primanota.ru/lonlonjp/1000-ad-peaceful-days-chords.htm
Привет, Гость.
Предлагаем пройти революционный курс по гитаре.
Подарок от PrimaNota.Ru, забирай!