PrimaNota.ru - самый крупный в мире бесплатный архив песенных текстов, аккордов, табулатур и нот


Longwave - Shining Hours - текст песни, таба, видео

Регистрация Запомнить меня
Войти через:  Facebook Google Twitter Vk Yandex Mail.ru

Longwave - Shining Hours - текст песни, таба, видео

Печатать
Просмотров: 103
------------------------------------------------------------------------------
                          Shining Hours by Longwave
------------------------------------------------------------------------------
Tabbed by: Steve
Email: midnighthatter@hotmail.com

I'm only pretty sure this song is correctly tabbed, parts of the verse sound
off to me, but the chorus and solo I think are solid (email me if you can do
it better) There's four basic parts; Verse, Chorus, Bridge and Solo, listen
to the song to feel them out
|Standard Tuning
|No Capo

Verse (Clean Guitar, maybe some reverb)[optionally, I like to hold down the
A string on the 4th fret and play the notes like little couplet chords to
play it on acoustic guitars, up to you]
e---------------------------------------------------------------------------|
b---------------------------------------------------------------------------|
g---------------------------------------------------------------------------|
d-3-3-3-3-3-3-3-3-3-3-3-3-3-6-6-6-3-3-3-3-3-3-3-3-3-3-3-3-3-6-6-6-----------|
a---------------------------------------------------------------------------|
E---------------------------------------------------------------------------|

e---------------------------------------------------------------------------|
b---------------------------------------------------------------------------|
g---------------------------------------------------------------------------|
d-4-4-4-4-4-4-4-4-4-4-4-4-4-6-6-6-3-3-3-3-3-3-3-3-3-3-3-3-3-6-6-6-----------|
a---------------------------------------------------------------------------|
E---------------------------------------------------------------------------|

Chorus (Distorted)
e---------------------------------------------------------------------------|
b---------------------------------------------------------------------------|
g-6-5-6-5-6-5-6-5-6-3-6-3-6-3-6-3-6-3-6-3-6-3-6-3-6-3-6-3-6-3-6-3-----------|
d---------------------------------------------------------------------------|
a---------------------------------------------------------------------------|
E---------------------------------------------------------------------------|

e---------------------------------------------------------------------------|
b---------------------------------------------------------------------------|
g-6-5-6-5-6-5-6-5-6-3-6-3-3-1-1-1-------------------------------------------|
d---------------------------------------------------------------------------|
a---------------------------------------------------------------------------|
E---------------------------------------------------------------------------|

Bridge (Distorted)
e---------------------------------------------------------------------------|
b---------------------------------------------------------------------------|
g-6-6-6-6-6-6-6-6-5-5-5-5-5-5-5-5-3-3-3-3-3-3-3-3-1-1-1-1-1-1-1-1-----------|
d---------------------------------------------------------------------------|
a---------------------------------------------------------------------------|
E---------------------------------------------------------------------------|

(end the bridge by playing the G string on the 6th fret into the guitar solo)

Solo (distorted, you could add a flanger or a phaser, definitely fool around
on a wah pedal or whammy bar if you have one, go all out and have fun with
it)
Opens during the end of the bridge with a prebend from the 12th to the 13th
like this:

e-13b12b13- if the makes any sense
b----------

e-13-13-13-13-13-13-13-13-11-11-11-11-13-13-13-13----------------------------|
b-------------------------------------------------11-11-11-11-11-11-11-11-11-|
g----------------------------------------------------------------------------|
d----------------------------------------------------------------------------|
a----------------------------------------------------------------------------|
E----------------------------------------------------------------------------|

e---------------------------------------------------------------------------|
b-11-11-11-11-11-11-11-11-11-11-11-11-11-11-11-9-9-9-9-11-11-11-11----------|
g------------------------------------------------------------------10-10-10-|
d---------------------------------------------------------------------------|
a---------------------------------------------------------------------------|
E---------------------------------------------------------------------------|

e---------------------------------------------------------------------------|
b---------------------------------------------------------------------------|
g-10-10-10-10-10-10-10-10-10-10-10-10-10-10-10-10-10-10-10-10-10-8-8-8-8----|
d------------------------------------------------------------------------11-|
a---------------------------------------------------------------------------|
E---------------------------------------------------------------------------|

e----------------------------------------------------------------------------|
b----------------------------------------------------------------------------|
g--------------------------------------8-8-8-8-10-10-10-10-10-10-10-10-13-13-|
d-11-11-11-8-8-8-8-8-8-8-8-11-11-11-11---------------------------------------|
a----------------------------------------------------------------------------|
E----------------------------------------------------------------------------|

e----------------------------------------------------------------------------|
b-------------------11-11-11-11-11-11-11-11-14-14-14-14-14-14-14-14-11-11-11-|
g-13-13-13-13-13-13----------------------------------------------------------|
d----------------------------------------------------------------------------|
a----------------------------------------------------------------------------|
E----------------------------------------------------------------------------|

e----------------------------------------------------------------11-11-11-11-|
b-11-11-11-11-11-13-13-13-13-13-13-13-13-14-14-14-14-14-14-14-14-------------|
g----------------------------------------------------------------------------|
d----------------------------------------------------------------------------|
a----------------------------------------------------------------------------|
E----------------------------------------------------------------------------|

e-11-11-11-11-13b12b13-(end with the same prebend as the opening)-----------|
b---------------------------------------------------------------------------|
g---------------------------------------------------------------------------|
d---------------------------------------------------------------------------|
a---------------------------------------------------------------------------|
E---------------------------------------------------------------------------|
Добавлено: 06.06.2012
Другие материалы по этой песне:
  • Аккорды и текст

Страница создана 06.06.2012
http://primanota.ru/longwave/shining-hours-chords.htm
Привет, Гость.
Предлагаем пройти революционный курс по гитаре.
Подарок от PrimaNota.Ru, забирай!