PrimaNota.ru - самый крупный в мире бесплатный архив песенных текстов, аккордов, табулатур и нот


Longue Distance - Insomniaque - таба, видео

Регистрация Запомнить меня
Войти через:  Facebook Google Twitter Vk Yandex Mail.ru

Longue Distance - Insomniaque - таба, видео

Печатать
Просмотров: 130
Уроки эстрадного вокала в Санкт-Петербурге
Artiste: Longue Distance
 Titre : Insomniaque
    Par: Ludo667


Couplet :

e-------------------------------------------| (x4)
B-------------------------------------------|
G-------------------------------44---44-----|
D-66-6666---44-4444---22-2222---44-4-44-4-6-|
A-66-6666---44-4444---22-2222---22-4-22-4-6-|
E-44-4444---22-2222---00-0000---xx-2-xx-2-4-|

Intro refrain :
(Et c'est la que j'ai compris...)

e-------------------|
B-------------------|
G------4--------4---|
D-2----4-4-2----4-4-|
A-2----2-4-2----2-4-|
E-0----x-2-0----x-2-|

Refrain :
(J'ai pas envi de dormir...)

e-------------------------------------------| (x2)
B-------------------------------------------|
G-----------------------44444444------------|
D-66666666---22222222---44444444---44444444-|
A-66666666---22222222---22222222---44444444-|
E-44444444---00000000---xxxxxxxx---22222222-|

Couplet

Intro refrain

Refrain

interlude :

e-------- (x6) ----    ------- (x6) -----|  (le tout x4)
B--------      ----    -------      -----|
G--------      ----    -------      -----|
D---4---4      77--    --4---4      77-9-|
A---4---4      77--    --4---4      77-9-|
E-0-2-0-2      55-0    0-2-0-2      55-7-|


Refrain (plus haut) :


e-------------------------------------------| (x4)
B-------------------------------------------|
G-----------------------77777777------------|
D-99999999---55555555---77777777---77777777-|
A-99999999---55555555---55555555---77777777-|
E-77777777---33333333---xxxxxxxx---55555555-|


Finale :

e-------- (x3) ----------|
B--------      ----------|
G--------      ----------|
D---4---4      77-2----4-|
A---4---4      77-2----4-|
E-0-2-0-2      55-0----2-|


Le meilleur truc est d'ecouter la chanson en meme temps !


Ludo667
Добавлено: 26.07.2012
Другие материалы по этой песне:
  • Аккорды и текст

Страница создана 26.07.2012
http://primanota.ru/longue-distance/insomniaque-chords.htm
Привет, Гость.
Предлагаем пройти революционный курс по гитаре.
Подарок от PrimaNota.Ru, забирай!