PrimaNota.ru - самый крупный в мире бесплатный архив песенных текстов, аккордов, табулатур и нот


Long Beach Dub Allstars - Luke - текст песни, таба, видео

Регистрация Запомнить меня
Войти через:  Facebook Google Twitter Vk Yandex Mail.ru

Long Beach Dub Allstars - Luke - текст песни, таба, видео

Печатать
Просмотров: 183
Уроки эстрадного вокала в Санкт-Петербурге
-------------------------------------------------------------------------------
                             LUKE - Long Beach Dub Allstars
-------------------------------------------------------------------------------
Tabbed by: wattmalter


Tuning: Standard

Repeats may vary throughout song just FYI

e|---------------------------------------------------4\--|
B|---------------------------------------------------5\--|
G|---------------------------------------------------6\--|
D|---------------------------------------------------6\--|x3
A|--4-4-4-2--4~--4-4-4-2-4--2~--4-4-4-2--4~--4-4-2---4\--|
E|-------------------------------------------------------|
    * * * *      * * * * *      * * * *      * * *

e|--4--4--4--4--2--2--2--2--|
B|--4--4--4--4--2--2--2--2--|
G|--5--5--5--5--3--3--3--3--|
D|--6--6--6--6--4--4--4--4--|x2
A|--6--6--6--6--4--4--4--4--|
E|--4--4--4--4--2--2--2--2--|

Enjoy :)

************************************
| *   palm mute
| /   slide up
| \   slide down
| h   hammer-on
| p   pull-off
| ~   vibrato
| +   harmonic
| x   Mute note
| b   Bend
| pb  Pre-bend
| br  Bend release
| pbr Pre-bend release
| brb Bend release bend

************************************
Добавлено: 16.07.2015
Вам также может быть интересно:
Другие материалы по этой песне:
  • Аккорды и текст

Страница создана 23.05.2012
http://primanota.ru/long-beach-dub-allstars/luke-chords.htm
Привет, Гость.
Предлагаем пройти революционный курс по гитаре.
Подарок от PrimaNota.Ru, забирай!