PrimaNota.ru - самый крупный в мире бесплатный архив песенных текстов, аккордов, табулатур и нот


Long Beach Dub Allstars - It Aint Easy - текст песни, бас-таба, видео

Регистрация Запомнить меня
Войти через:  Facebook Google Twitter Vk Yandex Mail.ru

Long Beach Dub Allstars - It Aint Easy - текст песни, бас-таба, видео

Печатать
Просмотров: 126
Intro:
|---------------------|
|4~-------------------|
|-----4~---7~----2~---|
|---------------------|

1st Verse:
|-------------------------------------------------------------------|
|44--444-444--44444-------------------------------------------------|
|-------------------44--444-444-44444--77-777-777-77777--222222222--|
|-------------------------------------------------------------------|

Chorus:
|-------------------------------------------------------|
|4-44--44444--------------------------------------------|
|------------4-44-44444--7-77-77777--2-222222222--------|  play 2X
|-------------------------------------------------------|

2nd Verse:
|------------------------------------------|
|4-4-4-4-4-4-4-4---------------------------|
|----------------4----7-7--7-7-7-7-7-7-2---|
|-----------------4---------------------2--|

Chorus:
|-------------------------------------------------------|
|4-44--44444--------------------------------------------|
|------------4-44-44444--7-77-77777--2-222222222--------|  play 2X
|-------------------------------------------------------|

Guitar Solo:
|-----------------------------------------------|
|4-44444444-------------------------------------|
|------------4-44444444--7-77777777--2-22222222-|
|-----------------------------------------------|

3rd Verse and 2nd solo:
|-----------------------------------------------|
|4-44444444-------------------------------------|
|------------4-44444444--7-77777777--2-22222222-|
|-----------------------------------------------|

Fast Punk Part:
|-----------------------|
|4444-------2222------4-|
|-----4444-------2222---|
|-----------------------|

There you have it, Well if you have corrections Email me at sublimefan2355@yahoo.com
is another way you can play this but you can figure that out, it is just octaves, it is up
the 9th fret.  I will put it up here soon.  Thanks for looking and/or printing.  ERIC 
IS THE BEST BASSIST IN THE WORLD!
Добавлено: 07.03.2012
Другие материалы по этой песне:
  • Аккорды и текст

Страница создана 07.03.2012
http://primanota.ru/long-beach-dub-allstars/it-aint-easy-chords.htm
Привет, Гость.
Предлагаем пройти революционный курс по гитаре.
Подарок от PrimaNota.Ru, забирай!