PrimaNota.ru - самый крупный в мире бесплатный архив песенных текстов, аккордов, табулатур и нот


London Grammar - Wicked Game - таба, видео

Регистрация Запомнить меня
Войти через:  Facebook Google Twitter Vk Yandex Mail.ru

London Grammar - Wicked Game - таба, видео

Печатать
Просмотров: 272
Авторы музыки: Chris Isaak
Авторы текста: Chris Isaak
-------------------------------------------------------------------------------
                             WICKED GAME - London Grammar
-------------------------------------------------------------------------------
Tabbed by: SammyDodger
E-mail: sam_moppo@hotmail.co.uk

Tuning: Standard
Absolutely love this cover at the moment, so i worked it out by ear and now i'm tabbing 
it out for everyone
else, I'm pretty sure it's correct, please email me any suggestions or corrections if not!

I'm fairly confident that LG actually tune a half step down to play this song but I've 
tabbed it out in
standard for ease of use.

Listen to the track whilst learning to get the rhythms and timings right :)


Intro

e|---------------------------------------------------------------------------|
B|---------------------------------------------------------------------------|
G|---3/10------10\3-------3/10------10--8--6\3-------------------------------|
D|------------------------------------------------6---5----------------------|
A|----------------------------------------------6---6------------------------|
E|---------------------------------------------------------------------------|

Verse

e|-------------------------------------------------|
B|-------------------------------------------------|
G|--6------5------12---12h13p12--------------------|
D|--8------6------13------------13-----------------|   x2
A|--8------6------13---------------13--------------|
E|--6------4------11-------------------------------|

e|-------------------------------------------------|
B|-------------------------------------------------|
G|--6------5------12---12h13p12----12h13p12--------|
D|--8------6------13------------13----------13-----|   3rd time round slightly changes
A|--8------6------13---------------------------13--|
E|--6------4------11-------------------------------|

e|-------------------------------------------------|
B|-------------------------------------------------|
G|--6------5------12---12h13p12--------------------|   4th time round is same as first two
D|--8------6------13------------13-----------------|
A|--8------6------13---------------13--------------|
E|--6------4------11-------------------------------|

Chorus

e|-----------------------------------------------------------------------------------|
B|-----------------------------------------------------------------------------------|
G|----6-------------5-----------x--12-------12------------12-------12h13p12----------|
D|--8-------------6-------------x-----13-------13------------13-------------13-------|
A|------------------------------x--------13-------13------------13-------------13----|
E|------------------------------x----------------------------------------------------|

e|-----------------------------------------------------------------------------------|
B|-----------------------------------------------------------------------------------|
G|----6----6--------5----5------x--12-------12------------12-------12h13p12----------|
D|--8----8--------6----6--------x-----13-------13------------13-------------13-------|
A|------------------------------x--------13-------13------------13-------------13----|
E|------------------------------x----------------------------------------------------|


"with you...."
(First time round palm mute)

e|------------------------------------------------------------------------|
B|------------------------------------------------------------------------|
G|---------10--6--8--6--5\3--3-3------------------------------------------|
D|-----(8)---------------------------6---5------5--6--8--(8)--------------|    x2
A|---------------------------------6---6------6---------------------------|
E|------------------------------------------------------------------------|


2nd Verse

e|----------------------------------------------------------------------------------------|
B|----------------------------------------------------------------------------------------|
G|------6---6h8p6---------5--5--------------12-----12h13p12--------12h13p12---------------|
D|----8---8-------8-------6----6------------13--13----------13----------------------------|
A|--8---------------------6-----------------13-----------------13-------------------------|
E|----------------------------------------------------------------------------------------|


e|----------------------------------------------------------------------------------------|
B|----------------------------------------------------------------------------------------|
G---6--6------------------5----5h6p5--------12---12h13p12-------------12-----------12-----|
D|--8----8----------------6--6-------6------13------------13-------13----13-----13----13--|
A|--8---------------------6-----------------13------------------13-----------13-----------|
E|------------------------------------------11---------------11---------------------------|


e|----------------------------------------------------------------------------------------|
B|----------------------------------------------------------------------------------------|
G|--6-6h8p6---------------5----5------------12------12h13p12-----------12h13p12-----------|
D|--8-------8-------------6--6---6----------13--13-----------13-----13----------13--------|
A|--8---------------------6-----------------13-------------------------------------13-----|
E|---------------------------------------------------------------11-----------------------|


e|----------------------------------------------------------------------------------------|
B|----------------------------------------------------------------------------------------|
G---6--6------------------5----5h6p5--------12---12----12-----------------12--------------|
D|--8----8----------------6--6-------6------13------13----13--------13-------13-----------|
A|--8---------------------6-----------------13---------------13--------11-------13--------|
E|------------------------------------------11--------------------11----------------------|


2nd Chorus

e|---------------------------------------------------------------------------------------------|
B|---------------------------------------------------------------------------------------------|
G|----6--6---6--------------5--5---5-----------12-------12-----------12-------12h13p12---------|
D|--8------8---8----------6------6---6------------13-------13-----------13-------------13------|
A|------------------------------------------13-------13-------13--13-------13-------------13---|
E|---------------------------------------------------------------------------------------------|

e|---------------------------------------------------------------------------------------------|
B|---------------------------------------------------------------------------------------------|
G|----6--6---6--------------5--5---5-----------12-------12----------12-------12----------------|
D|--8------8---8----------6------6---6------------13-------13----------13----------------------|
A|------------------------------------------13-------13-------13----------13-------------------|
E|---------------------------------------------------------------11----------------------------|

"with you..."

e|------------------------------------------------------------------------|
B|------------------------------------------------------------------------|
G|---------10--6---8--6--5\3---3-3----------------------------------------|
D|-----(8)-------8-----------3-------6---5--5-5----5--6--8--8-8-8---------|
A|---------------------------------6---6---------6------------------------|
E|------------------------------------------------------------------------|

e|------------------------------------------------------------------------|
B|------------------------------------------------------------------------|
G|---------10--6---8--6--5\3---3-3----------------------------------------|
D|-----(8)-------8-----------3-------6---5------5--6--8--8-8-8-8/---------|
A|---------------------------------6---6------6---------------------------|
E|------------------------------------------------------------------------|

e|------------------------------------------------------------|
B|------------------------------------------------------------|
G|---13-13----13h15p13----12---------13----13-13----12--------|
D|---------15----------15---------15----15-------15-----------|
A|------------------------------------------------------------|
E|------------------------------------------------------------|

e|------------------------------------------------------------|
B|------------------------------------------------------------|
G|------13----13h15p13----12---------13----13-13----12-12-----|
D|---15----15----------15---------15----15-------15-----------|
A|------------------------------------------------------------|
E|------------------------------------------------------------|

e|------------------------------------------------------------|
B|------------------------------------------------------------|
G|-------13----13h15p13----12--------13----13h15p13----12-----|
D|----15----15----------15--------15----15----------15--------|
A|------------------------------------------------------------|
E|------------------------------------------------------------|

e|------------------------------------------------------------|
B|------------------------------------------------------------|
G|-------13----13h15p13----12-12-----13----13h15p13----12/----|
D|----15----15----------15--------15----15----------15--------|
A|------------------------------------------------------------|
E|------------------------------------------------------------|

e|------------------------------------------------------------|
B|---/18-18---18-18-18-18--/18-18--(18)--18\------------------|
G|--------------------------------------------15~-(15)--(15)--|
D|------------------------------------------------------------|
A|------------------------------------------------------------|
E|------------------------------------------------------------|

e|------------------------------------------------------------|
B|---/18--18--18--18---18-16-14-------------------------------|
G|------------------------------15~---------------------------|
D|------------------------------------------------------------|
A|------------------------------------------------------------|
E|------------------------------------------------------------|


************************************

Hope you could all follow this!

************************************

| /   slide up
| \   slide down
| h   hammer-on
| p   pull-off
| ~   vibrato
| +   harmonic
| x   Mute note
| b   Bend
| pb  Pre-bend
| br  Bend release
| pbr Pre-bend release
| brb Bend release bend

************************************
Добавлено: 09.07.2015
Другие материалы по этой песне:
  • Аккорды и текст

Страница создана 09.07.2015
http://primanota.ru/london-grammar/wicked-game-chords.htm
Привет, Гость.
Предлагаем пройти революционный курс по гитаре.
Подарок от PrimaNota.Ru, забирай!