PrimaNota.ru - самый крупный в мире бесплатный архив песенных текстов, аккордов, табулатур и нот


London After Midnight - Sacrifice - аккорды и текст, таба, видео

Регистрация Запомнить меня
Войти через:  Facebook Google Twitter Vk Yandex Mail.ru

London After Midnight - Sacrifice - аккорды и текст, таба, видео

Печатать
Просмотров: 264
Авторы музыки: Sean Brennan
Авторы текста: Sean Brennan
Sacrifice
London After Midnight
		   Sacrifice by Lonodn After Midnight
                              GTML issue# 9

Tabbed and Trascribed by:Avelino Andretti
GTML issue# 9
Gothic Guitar Mailing List: E-Mail mailto:al448482@academ01.cem.itesm.mx
WWW http://www-lce.cem.itesm.mx/~al448482/tab/gtml/
The Following is A great song from the CD Selected Scenes From The End Of The World.
The tunnig is the same as a Capo on the 3rd Fret. The Chords are notated Naturally.
 Cm=Cm
Ab=Ab Bb=Bb G=G  The forms of the chords at 3rd Chord (not as notated
 here) are: Cm=Am Bb=G Ab=F G=E  The keyboard bass and 2nd Guitar follows the chord secuence Cm,Bb,Ab,G trough all song as notated.


                   Cm
G---------|--------5--||------------------0-----------|-----------------
D---------|--------5--||---------0--1--3-----1--3--0--|-----------------
Bb--------|--------5--||*-----2-----------------------|-----------------
F---------|--------7--||*-----------------------------|-----------------
C---------|--------7--||------------------------------|-----------------
G------5--|--------5--||------------------------------|-----------------
    Intro  at 0:10 at 0:29 Intro 2

    Bb                         Ab
G---------------0-----------|--------------0-----------|----------------
D------0--1--3-----3--1-----|-----0--1--3-----1--3--0--|----------------
Bb--2--------------------1--|--2-----------------------|----------------
F---------------------------|--------------------------|----------------
C---------------------------|--------------------------|----------------
G---------------------------|--------------------------|----------------
                               Keyboard Begins

    G                                 Cm       triplets
G---------------0------------||--||---------3--------3--|---------------
D------0--1--3-----3--1------||--||------1--------1-----|---------------
Bb--2--------------------1--*||--||*--2--------2--------|---------------
F---------------------------*||--||*--------------------|---------------
C----------------------------||--||---------------------|---------------
G----------------------------||--||---------------------|---------------
                                      Riff  "Darkness..."

    Bb                   Ab                   G
G---------------------|--------3--------3--|--------------------|-------
D------0--1--3--1--0--|-----1--------1-----|-----0--1--3--1--0--|-------
Bb--0-----------------|--2--------2--------|--1-----------------|-------
F---------------------|--------------------|--------------------|-------
C---------------------|--------------------|--------------------|-------
G---------------------|--------------------|--------------------|-------


    Cm                   Bb                   Ab
G---------3--------3--|--------------------|--------3--------3--|-------
D------1--------1-----|-----0--1--3--1--0--|-----1--------1-----|-------
Bb--2--------2--------|--0-----------------|--2--------2--------|-------
F---------------------|--------------------|--------------------|-------
C---------------------|--------------------|--------------------|-------
G---------------------|--------------------|--------------------|-------


    G
G----------------------------------||-----------------------------------
D------0-----0-----0-----0-----0---||-----------------------------------
Bb--1-----1-----1-----1-----1-----*||-----------------------------------
F---------------------------------*||-----------------------------------
C----------------------------------||-----------------------------------
G----------------------------------||-----------------------------------




         Cm                         Bb Bb Bb Bb Bb Bb Bb Bb Ab
G---||---0--0--0--0--0--0--0--0--|--3--3--3--3--3--3--3--3--|-----------
D---||---1--1--1--1--1--1--1--1--|--3--3--3--3--3--3--3--3--|-----------
A#--||*--2--2--2--2--2--2--2--2--|--4--4--4--4--4--4--4--4--|-----------
F---||*--2--2--2--2--2--2--2--2--|--5--5--5--5--5--5--5--5--|-----------
C---||---0--0--0--0--0--0--0--0--|--5--5--5--5--5--5--5--5--|-----------
G---||---0--0--0--0--0--0--0--0--|--3--3--3--3--3--3--3--3--|-----------
    Chorus "I'd Sacrifice"

                            G
G---1--1--1--1--1--1--1--1--|--0--0--0--0--0--0--0--0---||--------------
D---1--1--1--1--1--1--1--1--|--0--0--0--0--0--0--0--0---||--------------
A#--2--2--2--2--2--2--2--2--|--1--1--1--1--1--1--1--1--*||--------------
F---3--3--3--3--3--3--3--3--|--2--2--2--2--2--2--2--2--*||--------------
C---3--3--3--3--3--3--3--3--|--2--2--2--2--2--2--2--2---||--------------
G---1--1--1--1--1--1--1--1--|--0--0--0--0--0--0--0--0---||--------------


                                    Bb
G---||---------------------------|--0-----------|-----------------------
D---||------------1-----------1--|-----0--1--0--|-----------------------
A#--||*-----0--2--------0--2-----|--------------|-----------------------
F---||*--2-----------2-----------|--------------|-----------------------
C---||---------------------------|--------------|-----------------------
G---||---------------------------|--------------|-----------------------


    Ab                         G
G---------------------------|--0------------||--------------------------
D------------1-----------1--|-----3--1------||--------------------------
A#-----0--2--------0--2-----|-----------1--*||--------------------------
F---3-----------3-----------|--------------*||--------------------------
C---------------------------|---------------||--------------------------
G---------------------------|---------------||--------------------------



G---0--0--0--0--------------------||------------------------------------
D---0--0--0--0--------------------||------------------------------------
A#--1--1--1--1-----2-----2-----2--||------------------------------------
F---2--2--2--2--4--2--4--2--4--2--||------------------------------------
C---2--2--2--2--4--0--4--0--4--0--||------------------------------------
G---0--0--0--0--2--x--2--x--2--x--||------------------------------------
                Fill



    Cm                              Bb
G---||---------------------------|--0-----------|-----------------------
D---||------------1-----------1--|-----0--3--0--|-----------------------
A#--||*-----0--2--------0--2-----|--------------|-----------------------
F---||*--2-----------2-----------|--------------|-----------------------
C---||---------------------------|--------------|-----------------------
G---||---------------------------|--------------|-----------------------
    Outro gtr1

    Ab                         G
G---------------------------|--0------------||--------------------------
D------------1-----------1--|-----1--0------||--------------------------
A#-----0--2--------0--2-----|-----------1--*||--------------------------
F---3-----------3-----------|--------------*||--------------------------
C---------------------------|---------------||--------------------------
G---------------------------|---------------||--------------------------



G---||---3--1--0-----------------------|--------------------------------
D---||------------3--1--0-----0-----0--|--------------------------------
A#--||*--------------------2-----2-----|--------------------------------
F---||*--------------------------------|--------------------------------
C---||---------------------------------|--------------------------------
G---||---------------------------------|--------------------------------


    Bb                               Ab
G---3--1--0-----------------------|--3--1--0-----------------------|----
D------------3--1--0-----0-----0--|-----------3--1--0-----0-----0--|----
A#--------------------2-----2-----|--------------------2-----2-----|----
F---------------------------------|--------------------------------|----
C---------------------------------|--------------------------------|----
G---------------------------------|--------------------------------|----


    G                                  Cm
G---3--1--0------------------------||-----|--5--||----------------------
D------------3--1--0-----0-----0---||-----|--5--||----------------------
A#--------------------2-----2-----*||-----|--5--||----------------------
F---------------------------------*||-----|--7--||----------------------
C----------------------------------||-----|--7--||----------------------
G----------------------------------||--5--|--5--||----------------------
                                       Coda

------------------That's All Song------------------------------
Here are Alternative chords for Cm and G,  you can play them at the end of each
mens. to give emphasys to the song.
       Cmsus2
G---||---0--
D---||---3--
A#--||*--2--
F---||*--2--
C---||---0--
G---||---0--

       C7m
G---||---3--
D---||---1--
A#--||*--2--
F---||*--2--
C---||---0--
G---||---0--
       G??
G---||---3--
D---||---0--
A#--||*--1--
F---||*--2--
C---||---2--
G---||---0--
       G7
G---||---0--
D---||---3--
A#--||*--1--
F---||*--2--
C---||---2--
G---||---0--     
Добавлено: 19.09.2013
Другие материалы по этой песне:
  • Аккорды и текст

Страница создана 08.05.2012
http://primanota.ru/london-after-midnight/sacrifice-chords.htm
Привет, Гость.
Предлагаем пройти революционный курс по гитаре.
Подарок от PrimaNota.Ru, забирай!