PrimaNota.ru - самый крупный в мире бесплатный архив песенных текстов, аккордов, табулатур и нот


London After Midnight - Crhistmas Song - таба, видео

Регистрация Запомнить меня
Войти через:  Facebook Google Twitter Vk Yandex Mail.ru

London After Midnight - Crhistmas Song - таба, видео

Печатать
Просмотров: 155
-------------------------------------------------------------------------------
      The Christmas Song – London After Midnight
-------------------------------------------------------------------------------
Tabbed by:
Email:

Tuning: Standard

Riff A

e|-----------------------------------------------------------------------------|
B|-5/12~10-9-9-10-10-9-9-10-12-10-9-9-10-10-\5-5-5-----------------------------|
G|-----------------------------------------------------------------------------|
D|-----------------------------------------------------------------------------|
A|-----------------------------------------------------------------------------|
E|-----------------------------------------------------------------------------|

e|-----------------------------------------------------------------------------|
B|-5/12~10-9-9-10-10-9-9-10/17~~~----------------------------------------------|
G|-----------------------------------------------------------------------------|
D|-----------------------------------------------------------------------------|
A|-----------------------------------------------------------------------------|
E|-----------------------------------------------------------------------------|

Riff B
                               x4     Ends with-
e|---------------------------|---------------------------------------------------|
B|-5~~7-5-7/10~~~---|-7~-5~7~5~7-9-----------------------------------------------|
G|--------------------------|-------------------9--------------------------------|
D|--------------------------|-------------------7--------------------------------|
A|--------------------------|----------------------------------------------------|
E|--------------------------|----------------------------------------------------|

Riff C

e|------------------------------------------------------------------------------|
B|-3/10~10~10~10-9-0-----3/10~10~10~10-9-12~~-----------------------------------|
G|------------------------------------------------------------------------------|
D|------------------------------------------------------------------------------|
A|------------------------------------------------------------------------------|
E|------------------------------------------------------------------------------|

e|-----------------------------------------------------------------------------|
B|-/10-10-10-10-9-9-5-10-9-9-5-5-7-9~~-----------------------------------------|
G|-----------------------------------------------------------------------------|
D|-----------------------------------------------------------------------------|
A|-----------------------------------------------------------------------------|
E|-----------------------------------------------------------------------------|

e|-------------------------------------------------------------7---------------|
B|-12-12-12-12-10-10-5-12-10-10-5-5-7-5~~~5------------------------------------|
G|-----------------------------------------------------------------------------|
D|-----------------------------------------------------------------------------|
A|-----------------------------------------------------------------------------|
E|-----------------------------------------------------------------------------|

Played in this order:
Riff A (0:36)
Riff A (1:22)
Riff A (2:27)
Riff B (2:45)
Riff C (3:27)
Riff A (4:31)


| /  slide up
| \  slide down
| ~  vibrato
===============================================================================

*I DID NOT WRITE THIS TAB IT WAS SOMEONE ELSE*
Добавлено: 12.04.2012
Другие материалы по этой песне:
  • Аккорды и текст

Страница создана 12.04.2012
http://primanota.ru/london-after-midnight/crhistmas-song-chords.htm
Привет, Гость.
Предлагаем пройти революционный курс по гитаре.
Подарок от PrimaNota.Ru, забирай!