PrimaNota.ru - самый крупный в мире бесплатный архив песенных текстов, аккордов, табулатур и нот


London After Midnight - Claires Horrors - текст песни, таба, видео

Регистрация Запомнить меня
Войти через:  Facebook Google Twitter Vk Yandex Mail.ru

London After Midnight - Claires Horrors - текст песни, таба, видео

Печатать
Просмотров: 176
London After Midnight
Claire's Horror's

3/4 timing
intro & verse
E:---------------|------------|------------|-------------|------------|
B:3---/5-5-------|3---/5-5----|3---/5-5----|/8---7---5---|3---5-5-----|
G:---------------|------------|------------|-------------|------------|
D:---------------|------------|------------|-------------|------------|
A:---------------|------------|------------|-------------|------------|
E:---------------|------------|------------|-------------|------------|

E:------------|------------|---------------|-------------|--------------|
B:3---5-5-----|3---5-5-----|/8---7---/10---|10---8---7---|5---/10---8---|
G:------------|------------|---------------|-------------|--------------|
D:------------|------------|---------------|-------------|--------------|
A:------------|------------|---------------|-------------|--------------|
E:------------|------------|---------------|-------------|--------------|

E:----------------|---------------|---------------|------------|--------------||
B:7---5\---0~~~---|/10---10---8---|7---5---/10----|8---7---5---|/11---12~~~---||
G:----------------|---------------|---------------|------------|--------------*||
D:----------------|---------------|---------------|------------|--------------*||
A:----------------|---------------|---------------|------------|--------------||
E:----------------|---------------|---------------|------------|--------------||

Chorus: 4/4 timing
E:----------------|----------------|----------------|----------------|
B:----------------|----------------|----------------|----------------|
G:----------------|----------------|----------------|----------------|
D:2-2-2---4-4-4---|5-5-5---7-7-7---|5-5-5---7-7-7---|4-4-4---5-5-5---|
A:2-2-2---4-4-4---|5-5-5---7-7-7---|5-5-5---7-7-7---|4-4-4---5-5-5---|
E:0-0-0---2-2-2---|3-3-3---5-5-5---|3-3-3---5-5-5---|2-2-2---3-3-3---|
  pm-|    pm-|     pm-|    pm-|     pm-|    pm-|     pm-|    pm-|

E:----------------|----------------|----------------|-----------------||
B:----------------|----------------|----------------|-----------------||
G:----------------|----------------|----------------|-----------------*|
D:2-2-2---4-4-4---|5-5-5---7-7-7---|5-5-5---7-7-7---|10-9--7--5-------*|
A:2-2-2---4-4-4---|5-5-5---7-7-7---|5-5-5---7-7-7---|10-9--7--5-------||
E:0-0-0---2-2-2---|3-3-3---5-5-5---|3-3-3---5-5-5---|-8-7--5--3-------||
  pm-|    pm-|     pm-|    pm-|     pm-|    pm-|     

E:----------------|-|-|-|-|-|-|-|-|----------------|----------------|----------------|
B:----------------|-|-|-|-|-|-|-|-|----------------|----------------|----------------|
G:----------------|-|-|-|-|-|-|-|-|----------------|----------------|----------------|
D:9-7--5-4-2------|-|-|-|-|-|-|-|-|4/5\4-----------|4/5\4-----------|4/5\4-----7\5\4-|
A:9-7--5-4-2------|-|-|-|-|-|-|-|-|------7----7-7--|------5----5-5--|------7---------|
E:7-5--3-2-0------|-|-|-|-|-|-|-|-|----------------|----------------|----------------|

E:------------------|------------------|----------------|----------------|
B:------------------|------------------|----------------|----------------|
G:------------------|------------------|----------------|----------------|back to
D:4/5\4-------------|4/5\4-------------|4/5\4-----7---9-|----------------|chorus
A:------7----7-7----|------5----5-5----|------7---------|4~---3~---2~----|
E:------------------|------------------|----------------|----------------|
Добавлено: 06.07.2012
Другие материалы по этой песне:
  • Аккорды и текст

Страница создана 06.07.2012
http://primanota.ru/london-after-midnight/claires-horrors-chords.htm
Привет, Гость.
Предлагаем пройти революционный курс по гитаре.
Подарок от PrimaNota.Ru, забирай!