PrimaNota.ru - самый крупный в мире бесплатный архив песенных текстов, аккордов, табулатур и нот


Loma Prieta - Trilogy 6 Forgetting - таба, видео

Регистрация Запомнить меня
Войти через:  Facebook Google Twitter Vk Yandex Mail.ru

Loma Prieta - Trilogy 6 Forgetting - таба, видео

Печатать
Просмотров: 86
Loma Prieta - Trilogy 6: Forgetting

Tuning: Drop D
shoutout to Oscar Salman Prim on Youtube for covering this and making it tabbable more or less.

First minute of the song:

start with feedback either with harmonics or strum the strings behind the nut and being very loud.

then you play these chords really really really fast (basically tremolo picking them)

e|---------|
B|---------|
G|---6-----|
D|-3-5-6-2-|
A|-3-4-6-2-|
D|-3---6-2-|

10 seconds in, you play the 2nd chord(x456xx) for 1 measure and then you go back to playing the whole thing.

the next progression is

e|-----------------------------|
B|-----------------------------|
G|-----------------------------|
D|-2-3-6-3-----(end on)-0-(x4)-|
A|-2-3-6-3--------------0------|
D|-2-3-6-3--------------0------|

after that, you have these 2 chords

e|-----|
B|-----|
G|-3-6-|
D|-2-5-|
A|-1-4-|
D|-----|

after that, you have the trickiest bit of the song

e|---------------------------------|
B|---------------------------------|
G|-----6---------------------------|
D|-6-3-5-3-6-3-xx---(end on)-6-3-0-|
A|-6-3-4-3-6-3-xx------------6-3-0-|
D|-6-3---3-6-3-xx------------6-3-0-|

then you get the most simple but best part, make as much noise and be as intense as possible here

e|-----------------|
B|-----------------|
G|-6-6-------------|
D|-5-5-3-3-6-6-2-2-|
A|-4-4-3-3-6-6-2-2-|
D|-----3-3-6-6-2-2-|

e|-------------|
B|-------------|
G|-6-6---------|
D|-5-5-3-3-6-2-|
A|-4-4-3-3-6-2-|
D|-----3-3-6-2-|

e|-----------------|
B|-----------------|
G|-6-6-------------|
D|-5-5-3-3-6-6-2-2-|
A|-4-4-3-3-6-6-2-2-|
D|-----3-3-6-6-2-2-|

e|---------------|
B|---------------|
G|-6-6-----------|
D|-5-5-3-3-6-2-0-|
A|-4-4-3-3-6-2-0-|
D|-----3-3-6-2-0-|

Добавлено: 03.07.2015
Другие материалы по этой песне:
  • Аккорды и текст

Страница создана 03.07.2015
http://primanota.ru/loma-prieta/trilogy-6-forgetting-chords.htm
Привет, Гость.
Предлагаем пройти революционный курс по гитаре.
Подарок от PrimaNota.Ru, забирай!