PrimaNota.ru - самый крупный в мире бесплатный архив песенных текстов, аккордов, табулатур и нот


Loikaemie - Trinkfestigkeit - таба, видео

Регистрация Запомнить меня
Войти через:  Facebook Google Twitter Vk Yandex Mail.ru

Loikaemie - Trinkfestigkeit - таба, видео

Печатать
Просмотров: 72
i hope it's right.
Just give me feedback :) Thank you

Trinkfestigkeit - Loikaemie

Verses:

E |----1-----1/0-----1-----1/0-----|
H |---1-1---1---1---3-3---3---3----|
G |--2---2-0-----0-2---2-3-----3---|
D |---------------0-----0----------|
A |-3-----3------------------------|
E |--------------------------------|

Chords:

E |----0-----1------0-----1-----1-----1-----0-----0--||---1-----1-----0-----1-----1-----1-----0-----0--|
H |---1-1---1-1----1-1---1-1---3-3---1-1---1-1---1-1-||--3-3---1-1---1-1---1-1---3-3---1-1---1-1---1-1-|
G |--0---0-2---2--0---0-2---2-3---3-2---2-0---0-0---0||-3---3-2---2-0---0-2---2-3---3-2---2-0---0-0---0|
D |--------------------------0-----------------------||0-----------------------0-----------------------|
A |-3-----3------3-----3-----------3-----3-----3-----||------3-----3-----3-----------3-----3-----3-----|
E |--------------------------------------------------||------------------------------------------------|

Vers1
Wenn ich zuviel getrunken habe
dann bin ich nicht mehr gern gesehn
Ich bin schnell lästig
ich suche Menschen, die mich verstehn
Ich riech aus dem Mund, mein Anblick ist elend
doch dafür hab ich keine Zeit
Ich suche Anschluss, von mir aus auch Ärger
und nichts davon tut mir Leid

Chords
Ich hab daran Spaß
weil mir sonst im Leben nichts bleibt
außer der Freude an meiner Trinkfestigkeit
o oh oh oh
Ich hab daran Spaß
weil mir sonst im Leben nichts bleibt
außer der Freude an meiner Trinkfestigkeit

Vers2
Wenn ich Gefallen gefunden habe
am exsessiven Trinken
fall ich um in die Gosse
fang genauso an zu stinken
Lass mich liegen, denn das war mir
vorher schon selber klar
Mir gehts prächtig, mir gehts prima
Mir gehts wunderbar

Chords
Ich hab daran Spaß
weil mir sonst im Leben nichts bleibt
außer der Freude an meiner Trinkfestigkeit
o oh oh oh
Ich hab daran Spaß
weil mir sonst im Leben nichts bleibt
außer der Freude an meiner Trinkfestigkeit

Vers3
Wenn ich zuviel getrunken habe
dann fang ich gern an mich zu streiten
am liebsten mit Menschen, die mich sowieso
von vornherein meiden
Meistens wird's laut
und für alle unangenehm
Das ist mir peinlich, ich hol was zu trinken
und werd dann nach Hause gehn

Chords
Ich hab daran Spaß
weil mir sonst im Leben nichts bleibt
außer der Freude an meiner Trinkfestigkeit
O oh oh oh
Ich hab daran Spaß
weil mir sonst im Leben nichts bleibt
außer der Freude an meiner Trinkfestigkeit

Vers4
Wenn ich zuviel getrunken habe
und das Glück hab mich zu erinnern
an gestern Abend-ich sehe nur Nebel
Ich fang gerade wieder an zu zittern
ich hol was zu trinken, alles dreht sich
und ich muss mich übergeben
Ich mach mir ein Bier auf und schau aus dem Fenster
und muss lächeln beim Überlegen

Chords
O oh oh oh oh oh oh
Ich hab daran Spaß
weil mir alles im Leben bleibt
und dann auch noch diese Riesenfreude
über meine Trinkfestigkeit
Ich hab daran Spaß
weil mir alles im Leben bleibt
und dann auch noch diese Riesenfreude
über meine Trinkfestigkeit
Ich hab daran Spaß
weil mir alles im Leben bleibt
und dann auch noch diese Riesenfreude
jeden Tag
über meine Trinkfestigkeit
Ich hab daran Spaß
weil mir alles im Leben bleibt
und dann auch noch diese Riesenfreude
über meine Trinkfestigkeit
Ich hab daran Spaß
weil mir alles im Leben bleibt
und dann auch noch diese Riesenfreude
über meine Trinkfestigkeit
Ich hab daran Spaß
weil mir alles im Leben bleibt
und dann auch noch gottverdammte Freude
über meine Trinkfestigkeit
Ich hab daran Spaß
weil mir alles im Leben bleibt
und dann auch noch diese Riesenfreude
über meine Trinkfestigkeit
Ich hab daran Spaß
weil mir alles im Leben bleibt
und dann auch noch diese Riesenfreude
über meine Trinkfestigkeit
Добавлено: 21.12.2015
Другие материалы по этой песне:
  • Аккорды и текст

Страница создана 21.12.2015
http://primanota.ru/loikaemie/trinkfestigkeit-chords.htm
Привет, Гость.
Предлагаем пройти революционный курс по гитаре.
Подарок от PrimaNota.Ru, забирай!