PrimaNota.ru - самый крупный в мире бесплатный архив песенных текстов, аккордов, табулатур и нот


Loikaemie - Sex Gewalt Und Gute Laune - бас-таба, видео

Регистрация Запомнить меня
Войти через:  Facebook Google Twitter Vk Yandex Mail.ru

Loikaemie - Sex Gewalt Und Gute Laune - бас-таба, видео

Печатать
Просмотров: 168
Artist:     Loikaemie
Title:      Sex, Gewalt und gute Laune
Tabbed by:  Daniel Welzbacher

[correct version is in drop D, but this one works too ;)]

>Intro
G|----|----|----|----|----|----|----|----|
D|----|----|----|----|----|----|----|----|
A|----|----|----|----|----|----|----|----|
E|3333|3333|3333|3333|3333|3333|3333|3333|	7x

>guitar only...)

>Intro 2
G|------|----|-----|----|
D|------|----|-----|----|
A|1)))10|10--|2----|----|
E|------|----|--1-3|----|

G|-----------------|
D|-----------------|
A|-----------------|
E|33--333-333-33311|	4x

G|-----------------|
D|-----------------|
A|------1----------|
E|33-333--1-3------|	1x

>Verse
G|----|----|----|----|
D|----|----|----|----|
A|1111|----|----|----|
E|----|1111|3333|3333|	5x


>Refrain
G|----|----|----|----|----|----|----|----|
D|----|----|----|----|----|----|----|----|
A|----|----|----|----|5555|5555|----|----|
E|0000|0000|3333|3333|----|----|3333|3333|[1111]

G|----|----|----|----|----|----|----|----|
D|----|----|----|----|----|----|----|----|
A|6666|6666|1111|1111|5555|5555|----|----|
E|----|----|----|----|----|----|3333|3333|[1111]   2x

G|-----------------|
D|-----------------|
A|-----------------|
E|33--333-333-33311|	4x

G|-----------------|
D|-----------------|
A|------1----------|
E|33-333--1-3------|	1x

>Verse
>Refrain
>Verse

>Ending: A longer Refrain




Добавлено: 15.06.2012
Другие материалы по этой песне:
  • Аккорды и текст

Страница создана 15.06.2012
http://primanota.ru/loikaemie/sex-gewalt-und-gute-laune-chords.htm
Привет, Гость.
Предлагаем пройти революционный курс по гитаре.
Подарок от PrimaNota.Ru, забирай!