PrimaNota.ru - самый крупный в мире бесплатный архив песенных текстов, аккордов, табулатур и нот


Lodger - I Love Death - текст песни, таба, видео

Регистрация Запомнить меня
Войти через:  Facebook Google Twitter Vk Yandex Mail.ru

Lodger - I Love Death - текст песни, таба, видео

Печатать
Просмотров: 488
Уроки эстрадного вокала в Санкт-Петербурге
Tabber:ISuk@guitar
Band: Lodger
Song: I Love Death
Album:Hi-Fi High Lights Down Low

standard tuning(EADGBe)

Intro:
(clean)
|---------------------------------------------|
|-10-10-10-10--8-8-8-8--6-6-6-6--8-8-8-8------|
|--7--7--7--7--7-7-7-7--7-7-7-7--7-7-7-7------|
|--0--0--0--0--x-x-x-x--x-x-x-x--x-x-x-x------|
|--------------x-x-x-x--8-8-8-8--7-7-7-7------|
|--------------8-8-8-8------------------------|

Verse:          (light distortion)
|---------------------------------------------|
|---------------------------------------------|
|-7-7-7-7--5-5-5-5----------------------------|
|-7-7-7-7--5-5-5-5--3-3-3-3--2-2-2-2----------|
|-5-5-5-5--3-3-3-3--3-3-3-3--2-2-2-2----------|
|-------------------1-1-1-1--0-0-0-0----------|


Chorus: (light distortion)
|---------------------------------------------|
|---------------------------------------------|
|---------------5-----------------------------|
|-3------7------5-------5---------------------|
|-3------7------3-------5---------------------|
|-1------5--------------3---------------------|

interlude:

|--------------------------------------------|
|--------------------------------------------|
|--------------------------------------------|
|--8-8-8-8-8-8-8-8--7-7-7-7-7-7-7-7----------|
|--8-8-8-8-8-8-8-8--7-7-7-7-7-7-7-7----------|
|--6-6-6-6-6-6-6-6--5-5-5-5-5-5-5-5----------|

Outro:

|-------------------------------------------------------------|
|-------------------------------------------------------------|
|-------------------------------------------------------------|
|-8-8-8-8-8-8-8-8--7-7-7-7-7-7-7-7--6-6-6-6-6-6-6-6--5-5-5-5--|
|-8-8-8-8-8-8-8-8--7-7-7-7-7-7-7-7--6-6-6-6-6-6-6-6--5-5-5-5--|
|-6-6-6-6-6-6-6-6--5-5-5-5-5-5-5-5--4-4-4-4-4-4-4-4--3-3-3-3--|

|--------------------------|
|--------------------------|
|--------------------------|
|-4-4--3-3--2--------------|
|-4-4--3-3--2--------------|
|-2-2--1-1--0--------------|

order:
intro x1
verse x6
chorus x2
interlude x1
verse x6
chorus x2
interlude x 1
verse x4
chorus x2
outro x1

And that should be everything except the solo.
E-mail me with any comments/suggestions at sportsfreak465@yahoo.com
Добавлено: 05.03.2012
Другие материалы по этой песне:

Страница создана 05.03.2012
http://primanota.ru/lodger/i-love-death-chords.htm
Привет, Гость.
Предлагаем пройти революционный курс по гитаре.
Подарок от PrimaNota.Ru, забирай!