PrimaNota.ru - самый крупный в мире бесплатный архив песенных текстов, аккордов, табулатур и нот


Locust - Twenty-three Lubed Up Schizophrenics With Delusions Of Grandeur - бас-таба, видео

Регистрация Запомнить меня
Войти через:  Facebook Google Twitter Vk Yandex Mail.ru

Locust - Twenty-three Lubed Up Schizophrenics With Delusions Of Grandeur - бас-таба, видео

Печатать
Просмотров: 62
I noticed the lack of tabs for The locust on Ultimate Guitar
So i decided to tab out some
This song isn't as complex as you would think, it's just the bass is somewhat buried in the mix

Intro

G|---------------------------------------------------------------------------|
D|---------------------------------------------------------------------------|
A|-11111111111111----111111111111111-----------------------------------------|
E|----------------0------------------0---------------------------------------|


G|---------------------------------------------------------------------------|
D|---------2-2-2-2---------2-2-2-3-------------------------------------------|
A|-1-1-1-1---------1-1-1-1---------------------------------------------------|
E|---------------------------------------------------------------------------|

G|---------------------------------------------------------------------------|
D|---------------------------------------------------------------------------|
A|-6-6-6-6/7\4-4-4-4-6-6-6-6/7\4-4-4-4-6-6-6-6/7\4-4-4-4---------------------|
E|---------------------------------------------------------------------------|

G|---------------------------------------------------------------------------|
D|---------------------------------------------------------------------------|
A|---6---6---6---6---6---7---6---6---6---6---6---6---7-----------------------|
E|-0---0---0---0---0---0---0---0---0---0---0---0---0-------------------------|
Play this twice, however the second time you must slap/pop the notes

G|---------------------------------------------------------------------------|
D|---------2-2-2-2---------2-2-2-2-------------------------------------------|
A|-1-1-1-1---------1-1-1-1---------------------------------------------------|
E|---------------------------------------------------------------------------|

G|---------------------------------------------------------------------------|
D|---------------------------------------------------------------------------|
A|-5-5-5-5-5-5-5-8-5-5-5-5-5-5-5-8-------------------------------------------|
E|---------------------------------------------------------------------------|

Those are all the bass lines, played in that order. 
It's a pretty short song :)
As i said, the bass is buried in the mix so apologies if i made any small mistakes.


| /  slide up
| \  slide down
| h  hammer-on
| p  pull-off
| ~  vibrato
| +  harmonic
| x  Mute note
===============================================================================
Добавлено: 23.12.2015
Другие материалы по этой песне:
  • Аккорды и текст

Страница создана 23.12.2015
http://primanota.ru/locust/twenty-three-lubed-up-schizophrenics-with-delusions-of-grandeur-chords.htm
Привет, Гость.
Предлагаем пройти революционный курс по гитаре.
Подарок от PrimaNota.Ru, забирай!