PrimaNota.ru - самый крупный в мире бесплатный архив песенных текстов, аккордов, табулатур и нот


Locust - Teenage Mustache - таба, видео

Регистрация Запомнить меня
Войти через:  Facebook Google Twitter Vk Yandex Mail.ru

Locust - Teenage Mustache - таба, видео

Печатать
Просмотров: 121
Уроки эстрадного вокала в Санкт-Петербурге
This is Teenage Mustache by The Locust off of Plague Soundscapes.  Not much to the song,
there's kinda not a whole lot to tab.
Tuning: Standard
Time Signature: 4/4

/ = slide down
* = tremelo pick
> = slide up

e----------------------------------------------------|
B---12/--12/--12/------------------------------------|
G----9/---9/---9/------------------------------------|
D----9/---9/---9/------------------------------------|
A----8/---8/---8/------------------------------------|
E----------------------------------------------------|
     riff 1
                                              *     *
e---------------------------------------------11----10----|
B---------------------------------------------------------|
G---------------------------------------------------------|
D-------------12-----------------12-----------------------|
A----------11----11-----------11-----11-------------------|
E---/9--------------9/--/9---------------9/---------------|
     riff 2

e------------------------------------------------------------------|
B------------------------------------------------------------------|
G----8-8-8-8>/13---7-7-7-7>/>13-----8--8-8--8-8--7--7-7>/>13-------|
D----7-7-7-7>/-----6-6-6-6>/>-------7--7-7--7-7--6--6-6>/>---------|
A----6-6-6-6>/11---5-5-5-5>/>11-----6--6-6--6-6--5--5-5>/>11-------|
E------------------------------------------------------------------|
     riff 3

E----------------------------------------------------------|
B----------------------------------------------------------|
G----------------------------------------------------------|
D-------------12--------------------12---------------------|
A----------11-----11-------------11-----11-----------------|
E---/9----------------9/--/9-----------------9/--/9--------|
    riff 4

e-----------------------------------------------------|
B--12/--12/--12/--12/--12/----------------------------|
G---9/---9/---9/---9/---9/----------------------------|
D---9/---9/---9/---9/---9/----------------------------|
A---8/---8/---8/---8/---8/----------------------------|
E-----------------------------------------------------|
    riff 5

The Song:
riff 1 = 4x
riff 2 = 4x
riff 3 = 2x
riff 4 = 2x
riff 5 = 1x

stuff to know:
1) After the third striking of the only chord in riff 1, there is a keyboard/synth line
equals one measure, making it an even 4 measures per beat.  So it's not a 3/4 time
play with a pause of one measure after the third chord has been played.
2) The tremelo picked notes in riff 2 both equal 1 measure each.
3) In between riff 3 and riff 4, there is a bass riff that lasts two measures which does 
contradict or is included in the guitar riff so it's still 4/4.
4) The last slide off on the last riff is the ending to the song even though it's five 
per measure.
long.

That's it.  Questions or comments, email blackantibody@hotmail.com
Добавлено: 22.03.2012
Другие материалы по этой песне:
  • Аккорды и текст

Страница создана 22.03.2012
http://primanota.ru/locust/teenage-mustache-chords.htm
Привет, Гость.
Предлагаем пройти революционный курс по гитаре.
Подарок от PrimaNota.Ru, забирай!