PrimaNota.ru - самый крупный в мире бесплатный архив песенных текстов, аккордов, табулатур и нот


Locomondo - Liubi Liubi I Love You - таба, видео

Регистрация Запомнить меня
Войти через:  Facebook Google Twitter Vk Yandex Mail.ru

Locomondo - Liubi Liubi I Love You - таба, видео

Печатать
Просмотров: 97
|----------------------------------------------------------------------|
|----------------------------------------------------------------------|
|----------------------------------------------------------------------|
|--10/11---11/13---14--14--14--14/16---14---11-11----------------------|
|----------------------------------------------------------------------|
|----------------------------------------------------------------------|

|----------------------------------------------------------------------|
|----------------------------------------------------------------------|
|-----------------------13-14-16--14-13-11/13--------------------------|
|--13/14---14/16-------------------------------------------------------|
|----------------------------------------------------------------------|
|----------------------------------------------------------------------|

|----------------------------------------------------------------------|
|----------------------------------------------------------------------|
|--9--11/13--13--13---11---9/11--11--11--------------------------------|
|----------------------------------------------------------------------|
|----------------------------------------------------------------------|
|----------------------------------------------------------------------|

|----------------------------------------------------------------------|
|----------------------------------------------------------------------|
|--8-9/11--11--11--9--8----9/8/6---------------------------------------|
|----------------------------------------------------------------------|
|----------------------------------------------------------------------|
|----------------------------------------------------------------------|

|-----------------------------------------------------------------------|
|--9--12--9--7--5--7/9-----7--------------------------------------------|
|-----------------------------------------------------------------------|
|-----------------------------------------13--13-13-11--9---11----------|
|-----------------------------------------------------------------------|
|-----------------------------------------------------------------------|
Добавлено: 21.03.2012
Другие материалы по этой песне:
  • Аккорды и текст

Страница создана 21.03.2012
http://primanota.ru/locomondo/liubi-liubi-i-love-you-chords.htm
Привет, Гость.
Предлагаем пройти революционный курс по гитаре.
Подарок от PrimaNota.Ru, забирай!