PrimaNota.ru - самый крупный в мире бесплатный архив песенных текстов, аккордов, табулатур и нот


Lock Up - Dont Wanna Talk About It - таба, видео

Регистрация Запомнить меня
Войти через:  Facebook Google Twitter Vk Yandex Mail.ru

Lock Up - Dont Wanna Talk About It - таба, видео

Печатать
Просмотров: 118
Artist: Lock Up
Album: Something Bitchin' This Way Comes
Song: Don't Wanna Talk About It
Tuning: Standard (EADGBE)
Tabbed By: Psycho Munky

Intro Note: Tom is using a rack harmonizer, 5th up. (Thanks to gi_1963)

Intro
|-------------------------------|-------------------------------|
|-------------------------------|-------------------------------|
|-------------------------5---5-|-------------------------5-----|
|-7-----7-----7-----7-----3---3-|-7-----7-----7-----7-----3---5-|
|-5-5-5-5-5-5-5-5-5-5-5-5-------|-5-5-5-5-5-5-5-5-5-5-5-5-----3-|
|-------------------------------|-------------------------------|

|-------------------------------|-------------------------------|
|-------------------------------|-------------------------------|
|----------------------------5h7|-------------------------------|
|-7-----7-----7-----7-----5h7---|-7-----7-----7-----7-----5---5-|
|-5-5-5-5-5-5-5-5-5-5-5-5-------|-5-5-5-5-5-5-5-5-5-5-5-5-3---3-|
|-------------------------------|-------------------------------|

Verse 1 Part 1
|-------------------------------|-------------------------------|
|-------------------------------|-------------------------------|
|-------------------------5---5-|-------------------------5-----|
|-7-----7-----7-----7-----3---3-|-7-----7-----7-----7-----3---5-|
|-5-5-5-5-5-5-5-5-5-5-5-5-------|-5-5-5-5-5-5-5-5-5-5-5-5-----3-|
|-------------------------------|-------------------------------|

|-------------------------------|-------------------------------|
|-------------------------------|-------------------------------|
|----------------------------5h7|-------------------------5-----|
|-7-----7-----7-----7-----5h7---|-7-----7-----7-----7-----3---5-|
|-5-5-5-5-5-5-5-5-5-5-5-5-------|-5-5-5-5-5-5-5-5-5-5-5-5-----3-|
|-------------------------------|-------------------------------|

|-------------------------------|-------------------------------|
|-------------------------------|-------------------------------|
|-------------------------5---5-|-------------------------5/----|
|-7-----7-----7-----7-----7---7-|-7-----7-----7-----7-----7/--5-|
|-8-8-8-8-8-8-8-8-8-8-8-8-------|-8-8-8-8-8-8-8-8-8-8-8-8-----3-|
|-------------------------------|-------------------------------|

|-------------------------------|-------------------------------|
|-------------------------------|-------------------------------|
|-------------------------5---5-|-------------------------5-----|
|-7-----7-----7-----7-----3---3-|-7-----7-----7-----7-----3---5-|
|-5-5-5-5-5-5-5-5-5-5-5-5-------|-5-5-5-5-5-5-5-5-5-5-5-5-----3-|
|-------------------------------|-------------------------------|

Verse 1 Part 2
|-----------------------------------------|
|-----------------------------------------|
|-7-----5/7--7---10---7---7-x-x-7/5-5/4-5-|
|-x-----x/x--x----x---x---x-x-x-x/x-x/x-x-|
|-5-----3/5--5----8---5---5-x-x-5/3-3/2-3-|
|-----------------------------------------|

|----------------------------------------------------|
|----------------------------------------------------|
|-7-----5/7--7---10---7---7-x-x-7/9-9/10-10/12-12/14-|
|-x-----x/x--x----x---x---x-x-x-x/x-x/-x--x/-x--x/-x-|
|-5-----3/5--5----8---5---5-x-x-5/7-7/-8--8/10-10/12-|
|----------------------------------------------------|

|--------------------------------------------------|
|--------------------------------------------------|
|-10----5/7--10-10-x-x-5/7-10--5/7-10--5/7-7-9-10^-|
|--x----x/x---x--x-x-x-x/x--x--x/x--x-----------x--|
|--8----3/5---8--8-x-x-3/7--8--3/7--8-----------8^-|
|--------------------------------------------------|

|-------------------------------------------|
|-------------------------------------------|
|-7-----5/7--7---10---7---7-x-x-7/9/7-5/7/5-|
|-x-----x/x--x----x---x---x-x-x-x/x/x-x/x/x-|
|-5-----3/5--5----8---5---5-x-x-5/7/5-3/5/3-|
|-------------------------------------------|

Chorus 1
|--------------|  |-----------------------------------|
|--------------|  |-----------------------------------|
|-3-----15--15-|X2|-5-----17--17-----5-----------(19)-|
|-3------x---x-|  |-5------x---x-----5-----------(-x)-|
|-1-----13--13-|  |-3-----15--15-----3-----3--4--(17)-|
|--------------|  |-----------------------------------|

Pre Verse
|-------------------------------|-------------------------------|
|-------------------------------|-------------------------------|
|-------------------------5---5-|-------------------------------|
|-7-----7-----7-----7-----3---3-|-7-----7-----7-----7-----5---5-|
|-5-5-5-5-5-5-5-5-5-5-5-5-------|-5-5-5-5-5-5-5-5-5-5-5-5-3---3-|
|-------------------------------|-------------------------------|

Verse 2
|-----------------------------------------|
|-----------------------------------------|
|-7-----5/7--7---10---7---7-x-x-7/5-5/4-5-|
|-x-----x/x--x----x---x---x-x-x-x/x-x/x-x-|
|-5-----3/5--5----8---5---5-x-x-5/3-3/2-3-|
|-----------------------------------------|

|----------------------------------------------------|
|----------------------------------------------------|
|-7-----5/7--7---10---7---7-x-x-7/9-9/10-10/12-12/14-|
|-x-----x/x--x----x---x---x-x-x-x/x-x/-x--x/-x--x/-x-|
|-5-----3/5--5----8---5---5-x-x-5/7-7/-8--8/10-10/12-|
|----------------------------------------------------|

|-----------------------------------------------------|
|-----------------------------------------------------|
|-10----5/7--10-10-x-x-5/7-10--5/7-10--5/7-10--5/7-10-|
|--x----x/x---x--x-x-x-x/x--x--x/x--x--x/x--x--x/x--x-|
|--8----3/5---8--8-x-x-3/7--8--3/7--8--3/7--8--3/7--8-|
|-----------------------------------------------------|

|-------------------------------------------|
|-------------------------------------------|
|-7-----5/7--7---10---7---7-x-x-7/9/7-5/7/5-|
|-x-----x/x--x----x---x---x-x-x-x/x/x-x/x/x-|
|-5-----3/5--5----8---5---5-x-x-5/7/5-3/5/3-|
|-------------------------------------------|

Chorus 2
|--------------|  |-----------------------------------|
|--------------|  |-----------------------------------|
|-3-----15--15-|X2|-5-----17--17-----5-----------(19)-|
|-3------x---x-|  |-5------x---x-----5-----------(-x)-|
|-1-----13--13-|  |-3-----15--15-----3-----3--4--(17)-|
|--------------|  |-----------------------------------|

Pre Solo
|-------------------------------|-------------------------------|
|-------------------------------|-------------------------------|
|-------------------------5---5-|-------------------------5-----|
|-7-----7-----7-----7-----3---3-|-7-----7-----7-----7-----3---5-|
|-5-5-5-5-5-5-5-5-5-5-5-5-------|-5-5-5-5-5-5-5-5-5-5-5-5-----3-|
|-------------------------------|-------------------------------|

|-------------------------------|-------------------------------|
|-------------------------------|-------------------------------|
|----------------------------5h7|-------------------------5~~---|
|-7-----7-----7-----7-----5h7---|-7-----7-----7-----7-----5~~---|
|-5-5-5-5-5-5-5-5-5-5-5-5-------|-5-5-5-5-5-5-5-5-5-5-5-5-3~~---|
|-------------------------------|-------------------------------|

Solo (Guitar 1) (Guitar 2 Plays Verse 1 And Then Chorus 1)
|-12-12-12---------------13-13-13-------------|
|----------13-13-13---------------15-15-15----|
|-------------------12~--------------------14~|
|---------------------------------------------|
|---------------------------------------------|
|---------------------------------------------|

|--15-15-15-------------------15-15-15----------20-20-20-17-|
|-----------17-17-17-------------------17-17-17-------------|
|--------------------17-17-17-------------------------------|
|-----------------------------------------------------------|
|-----------------------------------------------------------|
|-----------------------------------------------------------|

|-------------------------------------------------------|
|-------------------------------------------------------|
|-/12^^^^^^12--10-10----10-10----10-10--12^-12-10----10-|
|--------------------12-------12------------------12----|
|-------------------------------------------------------|
|-------------------------------------------------------|

|------------------------------------------------------|
|------------------10-12--(pb)12(r)-p10----------10----|
|---10--10-10---------------------------12---10-----10-|
|--------------12--------------------------------------|
|------------------------------------------------------|
|------------------------------------------------------|

Tremolo Picking
|-22-18-20-17-18-15-17-13-15-12-13-10-12-8-10-6-|
|-----------------------------------------------|
|-----------------------------------------------|
|-----------------------------------------------|
|-----------------------------------------------|
|-----------------------------------------------|

|-22-18-20-17-18-15-17-13-22-20-18-17-15-13-12----20/0-|
|----------------------------------------------13------|
|------------------------------------------------------|
|------------------------------------------------------|
|------------------------------------------------------|
|------------------------------------------------------|

Outro
|*----------------------------------------------*|
|------------------------------------------------|
|-7---5-7-7----7---5-7--5----------------------5-|
|-7---5-7-7----7---5-7--5--8---8-8-8----8---8--5-|
|-5---3-5-5----5---3-5--3--8---8-8-8----8---8--3-|
|*-------------------------6---6-6-6----6---6---*|
Repeat Til End

Can't Do Outro Solo
Добавлено: 09.04.2012
Другие материалы по этой песне:
  • Аккорды и текст

Страница создана 09.04.2012
http://primanota.ru/lock-up/dont-wanna-talk-about-it-chords.htm
Привет, Гость.
Предлагаем пройти революционный курс по гитаре.
Подарок от PrimaNota.Ru, забирай!