PrimaNota.ru - самый крупный в мире бесплатный архив песенных текстов, аккордов, табулатур и нот


Local Resident Failure - Still Kickin On - бас-таба, видео

Регистрация Запомнить меня
Войти через:  Facebook Google Twitter Vk Yandex Mail.ru

Local Resident Failure - Still Kickin On - бас-таба, видео

Печатать
Просмотров: 12
-------------------------------------------------------------------------------
                            (Still) Kickin' On - Local Resident Failure
-------------------------------------------------------------------------------
Tabbed by: Jeremy L
E-mail: boardofscience@gmail.com

Tuning: Standard 

Intro 0:07
G|----------|----------------------------------------------------------------|
D|-5-3-1----|-------1---1-5-3-1-3-1-3-------1---1-5-3-1----------------------|
A|-------3~-|-3-1-3---3---------------3-1-3---3---------3/-------------------|
E|----------|----------------------------------------------------------------|


G|-------------------------------|  |---------------------------------------------------------|
D|.---------------333333-666666-.|x2|-33-333-33-3-3-------------------------------------------|
A|.-333333-111111---------------.|  |-----------------------------66-666-66-6-6---------------|
E|-------------------------------|  |---------------44-444-44-4-4---------------77-777-77-7-7-|

Listen for these stops
G|--------------------|
D|--------------------|
A|-3-33-33-33-3-3/0---|
E|--------------------|

Chorus 1
G|---------------------------------------------------------------------------------------|
D|----------------33-333-33-3-3------------------------------33-333-33-3-3-----------0-1-|
A|------------------------------33--1--33--1-------------------------------33--1--33-----|
E|-44-444-44-4-4-------------------------------44-444-44-4-4-----------------------------|

G|---------------------------------------------------------------------------|
D|---------------33-333-33-3-3-----------------------------------------------|
A|-----------------------------33--1--33/5/66--5-6-8-------------------------|
E|-44-444-44-4-4----------------------------------------4~-----1~------------|

G|----------|----------------------------------------------------------------|
D|-5-3-1----|-------1---1-5-3-1-3-1-3-------1---1-5-3-1----------------------|
A|-------3~-|-3-1-3---3---------------3-1-3---3---------3/-------------------|
E|----------|----------------------------------------------------------------|


G|-------------------------------|  |---------------------------------------------------------|
D|.---------------333333-666666-.|x2|-33-333-33-3-3-------------------------------------------|
A|.-333333-111111---------------.|  |-----------------------------66-666-66-6-6---------------|
E|-------------------------------|  |---------------44-444-44-4-4---------------77-777-77-7-7-|

Listen for these stops
G|--------------------|
D|--------------------|
A|-3-33-33-33-3-3/0---|
E|--------------------|

Chorus 2
G|---------------------------------------------------------------------------------------|
D|----------------33-333-33-3-3------------------------------33-333-33-3-3-----------0-1-|
A|------------------------------33--1--33--1-------------------------------33--1--33-----|
E|-44-444-44-4-4-------------------------------44-444-44-4-4-----------------------------|

G|---------------------------------------------------------------------------|
D|---------------33-333-33-3-3-----------------------------------------------|
A|-----------------------------33--1--33/5/66--5-6-8-------------------------|
E|-44-444-44-4-4----------------------------------------4~-----1~------------|

Breakdown                                         Pause until 1:56
G|--------------------------------|   |-----|     |--------------------------------------|
D|.-----5~-----3~----------------.|   |-----|     |-------------------------------------.|
A|.-333-3~-111-1~-----7~-----666-.|x2 |-33~ |     |-33333333-11111111-------------------.|x2
E|----------------555-5~-444-444--|   |-----|     |-------------------55555555-44444444--|

G|-----------------------------------------|  |-------------------------------------------------------------|
D|.---------------------------------------.|  |-------------------33333333-66666666------------------33333-5|
A|.---------------------------------------.|x2|-33333333-11111111-------------------33333333-1111111--------|
E|-11-1-11-1-11-1-11-1-44-4-44-4-44-4-44-4-|  |-------------------------------------------------------------|
   xx   xx   xx   xx   xx   xx   xx   xx

Final Chorus
G|---------------------------------------------------------------------------------------|
D|----------------33-333-33-3-3------------------------------33-333-33-3-3-----------0-1-|
A|------------------------------33--1--33--1-------------------------------33--1--33-----|
E|-44-444-44-4-4-------------------------------44-444-44-4-4-----------------------------|

G|---------------------------------------------------------------------------|
D|---------------33-333-33-3-3-----------------------------------------------|
A|-----------------------------33--1--33/5/66--5-6-8-------------------------|
E|-44-444-44-4-4----------------------------------------4~-----1~------------|

Outro
G|----------|----------------------------------------------------------------|
D|-5-3-1----|-------1---1-5-3-1-3-1-3-------1---1-5-3-1----------------------|
A|-------3~-|-3-1-3---3---------------3-1-3---3---------3/-------------------|
E|----------|----------------------------------------------------------------|

| /  slide up
| \  slide down
| h  hammer-on
| p  pull-off
| ~  vibrato
| +  harmonic
| x  Mute note
===============================================================================
Добавлено: 16.06.2016
Вам также может быть интересно:
Другие материалы по этой песне:
  • Аккорды и текст

Страница создана 16.06.2016
http://primanota.ru/local-resident-failure/still-kickin-on-chords.htm
Привет, Гость.
Предлагаем пройти революционный курс по гитаре.
Подарок от PrimaNota.Ru, забирай!