PrimaNota.ru - самый крупный в мире бесплатный архив песенных текстов, аккордов, табулатур и нот


Local Resident Failure - The Opener - бас-таба, видео

Регистрация Запомнить меня
Войти через:  Facebook Google Twitter Vk Yandex Mail.ru

Local Resident Failure - The Opener - бас-таба, видео

Печатать
Просмотров: 17
Уроки эстрадного вокала в Санкт-Петербурге
-------------------------------------------------------------------------------
                             The Opener - Local Resident Failure
-------------------------------------------------------------------------------
Tabbed by: Jeremy L
E-mail: boardofscience@gmail.com

Tuning: Standard
Not 100% Correct but this is what I play at least.

Intro: Rest then ..0:20 "She was white"

G|--------------------------------|-----------------------------|
D|--------------------------------|.----------------------3~---.|
A|------------------5-------------|.55-555-555-555-555-555--3~-.|x2
E|--------------------------------|-----------------------------|

Verse 1
G|-----------------------------|
D|.----------------------3~---.|
A|.55-555-555-555-555-555--3~-.|x2
E|-----------------------------|

Chorus 1                                       Listen to syncro
G|----------------------------------------------------------------------|
D|--------2h3-33-3p2h3------235-55-5------------------------------------|
A|1-11-1-3------------3-33-3----------1p0-1-0-1-0-1~-0--3p2-3~-2~-3--4-5|
E|----------------------------------------------------------------------|

(Listen to this part) (Can also strum similar to Verse) 
G|------------------/-----------------/-----------------/-------------------|
D|.-----------------/-----------------/-----------------/------------------.|
A|.5555555555555555-/-3-3333333333333-/-1-1111111111111-/-00--11--00--3333-.| x2
E|------------------/-----------------/-----------------/-------------------|

Verse 2 (Silent until "Another Crime")
Chorus 2 1:18
G|----------------------------------------------------------------------|
D|--------2h3-33-3p2h3------235-55-5------------------------------------|
A|1-11-1-3------------3-33-3----------1p0-1-0-1-0-1~-0--3p2-3~-2~-3--4-5|
E|----------------------------------------------------------------------|

Bridge                                     Dal plays it different live this is not 100%
G|-------------------------------------|  |----97 107-910------97 107-910-| 
D|.-----------------------------------.|  |.-88-----------1010-----------.|
A|.55555555-33333333-11111111-33333333.|x4|.-----------------------------.|
E|-------------------------------------|  |-------------------------------|

Yet again not 100% sure(this is what I play)
G|10----10----9----9----5----5----------|
D|12-00-12-00-0----0----7----7----3~----|
A|--------------00---00---00---00----3~-|
E|--------------------------------------|

Pre Chorus
G|----------------------------------------------------------------------------------------------------------|
D|---------------------------------------------33-333-3-----------------------------------------------------|
A|55-555-5-33-333-3-------------------55-555-5----------33-333-3----------55-555-5-33-333-3-----------------|
E|------------------33-333-3-66-666-6----------------------------33-333-3------------------33-333-3-55-555-5|

Chorus 3
G|----------------------------------------------------------------------|
D|--------2h3-33-3p2h3------235-55-5------------------------------------|
A|1-11-1-3------------3-33-3----------1p0-1-0-1-0-1~-0--3p2-3~-2~-3--4-5|
E|----------------------------------------------------------------------|

Outro
G|------------------/-----------------/-----------------/---------------------------------------|
D|------------------/-----------------/-----------------/---------------------------------------|
A|5555555555555555--/-3-3333333333333-/-1-1111111111111-/-00--11--00--3333--5~------------------| 
E|------------------/-----------------/-----------------/-------------------------------------6~|

I have this whole album tabbed on bass, hopefully I'll get around to putting up the rest soon. 

| /  slide up
| \  slide down
| h  hammer-on
| p  pull-off
| ~  vibrato
| +  harmonic
| x  Mute note
===============================================================================
Добавлено: 16.06.2016
Вам также может быть интересно:
Другие материалы по этой песне:
  • Аккорды и текст

Страница создана 16.06.2016
http://primanota.ru/local-resident-failure/opener-chords.htm
Привет, Гость.
Предлагаем пройти революционный курс по гитаре.
Подарок от PrimaNota.Ru, забирай!