PrimaNota.ru - самый крупный в мире бесплатный архив песенных текстов, аккордов, табулатур и нот


Local Natives - Shape Shifter - текст песни, таба, бас-таба, видео

Регистрация Запомнить меня
Войти через:  Facebook Google Twitter Vk Yandex Mail.ru

Local Natives - Shape Shifter - текст песни, таба, бас-таба, видео

Печатать
Просмотров: 208
-----------------------------------------------------------------------------
                      Local Natives - Shape Shifter
-----------------------------------------------------------------------------
Tabbed by: Marcus Marchal (Warflojd)
E-mail: mackan_003_94@hotmail.com

Tuning: Standard
Capo: 0

This wonderful song was only uploaded as a bass tab so I took time to write a guitar version.
The part "Psycho, you killer, you cancer.." is just kind of a random melody. The actual song
contains multiple guitars playing different stuff at once, so you can kinda play 
whatever you
want during this part.


Intro (same as verse):
e|------------------------------------------------------------------------------|
B|------------------------------------------------------------------------------|
G|------------------------------------------------------------------------------|
D|--5--5--5--5--3--3--5--5--3--3-------5--5--9---9---9---9---9---9---3----------|
A|--7--7--7--7--3--3--5--5--3--3-------5--5--10--10--10--10--10--10--3-------7--|
E|--0--0--0--0--1--1--3--3--1--1--1/5--3--3--7---7---8---8---7---7---1--3/5-----|


My king, I'm humbled before you, I bow
Moods like you're pulled by the moonlight, somehow
e|------------------------------------------------------------------------------|
B|------------------------------------------------------------------------------|
G|------------------------------------------------------------------------------|
D|--5--5--5--5--3--3--5--5--3--3-------5--5--9---9---9---9---9---9---3----------|
A|--7--7--7--7--3--3--5--5--3--3-------5--5--10--10--10--10--10--10--3-------7--|
E|--0--0--0--0--1--1--3--3--1--1--1/5--3--3--7---7---8---8---7---7---1--3/5-----|  (x2)


How is the language we're speaking the same?
Shape shifter have you discovered a change?
e|------------------------------------------------------------------------------|
B|------------------------------------------------------------------------------|
G|------------------------------------------------------------------------------|
D|--5--5--5--5--3--3--5--5--3--3-------5--5--9---9---9---9---9---9---3----------|
A|--7--7--7--7--3--3--5--5--3--3-------5--5--10--10--10--10--10--10--3-------7--|
E|--0--0--0--0--1--1--3--3--1--1--1/5--3--3--7---7---8---8---7---7---1--3/5-----|  (x2)


             B#          F
Why does the soul hallucinate?
            G                F
I've got control, I shift my shape
e|------------------------------------------------------------------------------|
B|------------------------------------------------------------------------------|
G|------------------------------------------------------------------------------|
D|--5--5--5--5--3--3--5--5--3--3-------5--5--9---9---9---9---9---9---3----------|
A|--7--7--7--7--3--3--5--5--3--3-------5--5--10--10--10--10--10--10--3-------7--|
E|--0--0--0--0--1--1--3--3--1--1--1/5--3--3--7---7---8---8---7---7---1--3/5-----|


Your eyes, they swell like a riot, deranged
Tomorrow you're laughing like a child again
e|------------------------------------------------------------------------------|
B|------------------------------------------------------------------------------|
G|------------------------------------------------------------------------------|
D|--5--5--5--5--3--3--5--5--3--3-------5--5--9---9---9---9---9---9---3----------|
A|--7--7--7--7--3--3--5--5--3--3-------5--5--10--10--10--10--10--10--3-------7--|
E|--0--0--0--0--1--1--3--3--1--1--1/5--3--3--7---7---8---8---7---7---1--3/5-----|  (x2)


             B#          F
Why does the soul hallucinate?
            G                F
I've got control, I shift my shape
             B#              F
If flesh and bone do not contain
            G                F
The mirrors don't reflect my face


Psycho, you killer, you cancer, my friend
Why don't you give me an answer for when
When you'll let it go
When you'll let it go
When you'll let it go
When you'll let it go
e|------------------------------------------------------------|
B|--10--10----------------------------------------------------|
G|----------12--12--9--9----------9--9--12--12--9--9----------|
D|------------------------12--12----------------------12--12--|
A|------------------------------------------------------------|
E|------------------------------------------------------------|  (x14 and then go silent)

e|------------------------------------------------------------------------------|
B|------------------------------------------------------------------------------|
G|------------------------------------------------------------------------------|
D|--5--5--5--5--3--3--5--5--3--3-------5--5--9---9---9---9---9---9---3----------|
A|--7--7--7--7--3--3--5--5--3--3-------5--5--10--10--10--10--10--10--3-------7--|
E|--0--0--0--0--1--1--3--3--1--1--1/5--3--3--7---7---8---8---7---7---1--3/5-----|

             B#          F
Why does the soul hallucinate?
            G                F
I've got control, I shift my shape
             B#              F
If flesh and bone do not contain
            G                F
The mirrors don't reflect my face

e|------------------------------------------------------------------------------------------------|
B|------------------------------------------------------------------------------------------------|
G|------------------------------------------------------------------------------------------------|
D|------------------------------------------------------------------------------------------------|
A|------------------------------------------------------------------------------------7--7--7--7--|
E|--0--0--0--0--1--1--3--3--1--1--1--1/5--5--5--5--3--3--7--7--8--8--7--7--1--1--1/5--------------|  (x2)

e|------------------------------------------------------------------------------|
B|------------------------------------------------------------------------------|
G|------------------------------------------------------------------------------|
D|--5--5--5--5--3--3--5--5--3--3-------5--5--9---9---9---9---9---9---3----------|
A|--7--7--7--7--3--3--5--5--3--3-------5--5--10--10--10--10--10--10--3-------7--|
E|--0--0--0--0--1--1--3--3--1--1--1/5--3--3--7---7---8---8---7---7---1--3/5-----|
Добавлено: 12.08.2015
Другие материалы по этой песне:
  • Аккорды и текст

Страница создана 13.07.2012
http://primanota.ru/local-natives/shape-shifter-chords.htm
Привет, Гость.
Предлагаем пройти революционный курс по гитаре.
Подарок от PrimaNota.Ru, забирай!