PrimaNota.ru - самый крупный в мире бесплатный архив песенных текстов, аккордов, табулатур и нот


Local H - Sports Bar - текст песни, таба, видео

Регистрация Запомнить меня
Войти через:  Facebook Google Twitter Vk Yandex Mail.ru

Local H - Sports Bar - текст песни, таба, видео

Печатать
Просмотров: 149
Local H - Sports Bar
by braim

intro/verse:

Eb------------------------------------------------------------|
Bb----------4---4---3-----3---------------4--------------3----|
Gb--0-0-0-0-0-0-0-0-0-0-0-0------------0----0----0---0--------| and so on..
Db--6-6-6-6-6-6-6-6-5-5-5-5--5-5-5-5/6---6-----6---5---5------|
Ab------------------------------------------------------------|
Eb------------------------------------------------------------|

Fucked up - drunk and stoned
Every choice has a no
Speech slurred - I called you again
You're not even my friend

then:

--------------------------------|
--------------------------------|
----------0---0----------0---0--|
--6-6-6-6-6-6-6--5-5-5-5-5-5-5--| and so on...
--6-6-6-6-6-6-6--5-5-5-5-5-5-5--|
--4-4-4-4-4-4-4--3-3-3-3-3-3-3--|

    Choked up - I gotta go
   every choice has a no
   I'm broke - I don't belong
   They're raping my favorite song

prechorus:

---------------------------------------------|
---------------------------------------------|
-----------3-x-3-3-x--5-x-5-----------5-5----|
--3-x-3-3--3-x-3-3-x--5-x-5-----------5-5----|
--3-x-3-3--1-x-1-1-x--3-x-3-3-3h5p3-0-3-3----|
--1-x-1-1------------------------------------|

And every time I wake up I feel sad
I dream about the things I used to have
And how did I get into this?

chorus:
-----------------------------|
-----------------------------|
--5--------------------------|
--5--6--6-6-6--8-8--5-5------|
--3--6--6-6-6--8-8--5-5------|
-----4--4-4-4--6-6--3-3------|

I'm tied to it

Teased up - high hair disgust
No sex - a natural distrust
I don't care - you can't get through
I dig hating you
I did it again
Drink it up - pissed off
I'm a hack, you're a smoker's cough
I'd like to fuck, but you're too dumb
Gee, it's great being single and young
And every time I try to talk to you
I know there's something else you'd rather do
And how did I get into this? - I'm tied to it


And every time I wake up bruised
I know that my brain's not in use
And every time when things are great
I don't know why I detonate
I'm tied to it


I did it again


And every time I wake up bruised
I know that my brain's not in use
And every time when things are great
I don't know why I detonate
I'm tied to it

scott rulz
Добавлено: 18.07.2012
Другие материалы по этой песне:
  • Аккорды и текст

Страница создана 21.05.2012
http://primanota.ru/local-h/sports-bar-chords.htm
Привет, Гость.
Предлагаем пройти революционный курс по гитаре.
Подарок от PrimaNota.Ru, забирай!