PrimaNota.ru - самый крупный в мире бесплатный архив песенных текстов, аккордов, табулатур и нот


Local H - Ray Milland - таба, видео

Регистрация Запомнить меня
Войти через:  Facebook Google Twitter Vk Yandex Mail.ru

Local H - Ray Milland - таба, видео

Печатать
Просмотров: 85
Artist: Local H
Song: Ray Milland
Album: Unreleased/1995-1996 Demo
Listen to it here: http://www.youtube.com/watch?v=mqkMoYlUX2Q

Tuning: Half-step down

   0:00-0:14
eb|----------------------------------------------|
Bb|----------------------------------------------|
Gb|----------------------------------------------|  Opening riff repeats twice
Db|-222222-33333333-55555555-777777777777-3-(2)->|  and on the 2nd time goes
Ab|-222222-33333333-55555555-777777777777-3-(2)->|  right into the 'jingly' 
Eb|-000000-11111111-33333333-555555555555-1-(0)->|  picked Es

eb|----------------------------------------------|
Bb|----------------------------------------------|
Gb|----------------------------------------------|
Db|-222222-33333333-55555555-777777777777-3-(2)->|
Ab|-222222-33333333-55555555-777777777777-3-(2)->|
Eb|-000000-11111111-33333333-555555555555-1-(0)->|


   0:14-0:25
eb|-----0--| For this 'jingly' riff, just mess around with the picking
Bb|-----5--| Eb and then upstroke the 2-4-5 to make it 'sound' like the song.
Gb|-----4--| Repeats 3 times
Db|-2--(2)-|
Ab|-2------|
Eb|-0------|

   0:25-0:28
eb|-----------------------|
Bb|-----------------------|
Gb|-----------------------|
Db|-55555555-33333333-(2)-|
Ab|-55555555-33333333-(2)-|
Eb|-33333333-11111111-(0)-|

   0:28-0:38   0:38-0:43
eb|-----0--|--|-------------------|
Bb|-----5--|--|-------------------|
Gb|-----4--|--|-------------------|
Db|-2--(2)-|--|-55555555-33333333-|
Ab|-2------|--|-55555555-33333333-|
Eb|-0------|--|-33333333-11111111-|

   0:43-1:00
eb|------------------------------------------------------------|
Bb|------------------------------------------------------------|
Gb|------------------------------------------------------------|
Db|-333333555555-333333555555-333333555555-33333355555555-3(2)-|
Ab|-333333555555-333333555555-333333555555-33333355555555-3(2)-|
Eb|-110101333333-110101333333-110101333333-11010133333333-1(0)-|

1:00-1:06      1:07-1:10
eb|-----0--|--|-------------------|
Bb|-----5--|--|-------------------|
Gb|-----4--|--|-------------------|
Db|-2--(2)-|--|-55555555-33333333-|
Ab|-2------|--|-55555555-33333333-|
Eb|-0------|--|-33333333-11111111-|

1:10-1:21      1:21-1:25
eb|-----0--|--|-------------------|
Bb|-----5--|--|-------------------|
Gb|-----4--|--|-------------------|
Db|-2--(2)-|--|-55555555-33333333-|
Ab|-2------|--|-55555555-33333333-|
Eb|-0------|--|-33333333-11111111-|

   1:25-1:38
eb|------------------------------------------------------------|
Bb|------------------------------------------------------------|
Gb|------------------------------------------------------------|
Db|-333333555555-333333555555-333333555555-33333355555555-3(2)-|
Ab|-333333555555-333333555555-333333555555-33333355555555-3(2)-|
Eb|-110101333333-110101333333-110101333333-11010133333333-1(0)-|

   1:38-2:05
eb|----------------------------------------------|
Bb|----------------------------------------------|
Gb|----------------------------------------------|
Db|-222222-33333333-55555555-777777777777-3-(2)--|
Ab|-222222-33333333-55555555-777777777777-3-(2)--|
Eb|-000000-11111111-33333333-555555555555-1-(0)--|

2:05-2:16       2:16-2:20
eb|-----0--|--|-------------------|
Bb|-----5--|--|-------------------|
Gb|-----4--|--|-------------------|
Db|-2--(2)-|--|-55555555-33333333-|
Ab|-2------|--|-55555555-33333333-|
Eb|-0------|--|-33333333-11111111-|

   2:20-2:29
eb|----------------------------------------------------|
Bb|----------------------------------------------------|
Gb|-9999991010101010-9999991010101010-9999991010101010-|
Db|-9999991010101010-9999991010101010-9999991010101010-|
Ab|-7777778888888888-7777778888888888-777777-888888888-|
Eb|----------------------------------------------------|

   2:29-2:33
eb|-------------------|
Bb|-------------------|
Gb|-------------------|
Db|-55555555-33333333-|
Ab|-55555555-33333333-|
Eb|-33333333-11111111-|

   2:33-2:59
eb|------------------------------------------------------------|
Bb|------------------------------------------------------------|
Gb|------------------------------------------------------------|
Db|-333333555555-333333555555-333333555555-33333355555555-3(2)-|
Ab|-333333555555-333333555555-333333555555-33333355555555-3(2)-|
Eb|-110101333333-110101333333-110101333333-11010133333333-1(0)-|

3:00-3:09      3:10-
eb|-----0--|--|-------------|
Bb|-----5--|--|-------------|
Gb|-----4--|--|-------------|
Db|-2--(2)-|--|-55555555-3r-|
Ab|-2------|--|-55555555-3r-|
Eb|-0------|--|-33333333-1r-|
Добавлено: 21.07.2013
Другие материалы по этой песне:
  • Аккорды и текст

Страница создана 21.07.2013
http://primanota.ru/local-h/ray-milland-chords.htm
Привет, Гость.
Предлагаем пройти революционный курс по гитаре.
Подарок от PrimaNota.Ru, забирай!