PrimaNota.ru - самый крупный в мире бесплатный архив песенных текстов, аккордов, табулатур и нот


Local H - Manifest Density Pt 2 - текст песни, таба, видео

Регистрация Запомнить меня
Войти через:  Facebook Google Twitter Vk Yandex Mail.ru

Local H - Manifest Density Pt 2 - текст песни, таба, видео

Печатать
Просмотров: 167
Уроки эстрадного вокала в Санкт-Петербурге
"Manifest Density Pt. 2" by Local H
off of "As Good As Dead"

(Tuning: Standard)

Tabbed by: Brett Ardiel
email: twilightdark@canada.com
icq: 75454405

*LEGEND*
Slide     = /
Dead Note = x
Harmonics = ()
Strum Up  = ^
Palm Mute = #
Bend      = ~

Intro
e|-----------------------------------------------------|
B|----------------------------15-17-15--12-15-12-10----|
G|----12-14-16~-------14-16~------------------------12-|
D|-14--------------14----------------------------------|
A|--------------12-------------------------------------|
E|-----------------------------------------------------|

e|-----------------------------------------------------|
B|---------------------------15-15-17-15-12-15-12-10---|
G|----12-14-16~-------14-16~-------------------------9-|
D|-14--------------14----------------------------------|
A|--------------12-------------------------------------|
E|-----------------------------------------------------|

Main Riff
e|-------------------------------------------------------------|
B|-------------------------------------------------------------|
G|-------------------------------------------------------------|
D|-2-2-2-2-2-2-2-22-7-7-7-7-7-7-7-77-10-10-10-10-10-10-10-1010-|
A|-2-2-2-2-2-2-2-22-7-7-7-7-7-7-7-77-10-10-10-10-10-10-10-1010-|
E|-0-0-0-0-0-0-0-00-5-5-5-5-5-5-5-55--8--8--8--8--8--8--8--8-8-|

e|-------------------|
B|-------------------|
G|-------------------|
D|-9-9-9-99-5-5-5-55-|
A|-9-9-9-99-5-5-5-55-|
E|-7-7-7-77-3-3-3-33-|

Second Gutiar comes in with this during the above riff
sometime
e|--------------|
B|--------------|
G|--------------| Repeat
D|--------------|
A|--------------|
E|-7-5-3--0-3-5-|

Once the singing stops, the second guitar switches to
this
(but the main riff is still going in the background)
e|----------------------------------------------------------------------|
B|----------------------------------------------------------------------|
G|----------------------------------------------------------------------|
D|----------------------------------------------------------------------|
A|---------------------------------------------------------------10-9-7-|
E|-7-5-3--0-3-5-7-8-7--5-7-8--10-8-7--5-7-8--12-11-11--10-11-11---------|

e|------------------------------------------------------------------|
B|------------------------------------------------------------------|
G|------------------------------------------------------------------|
D|------------------------------------------------------------------|
A|-6-7-9--10-9-7--6-7-9-10-10-9-10-10\12-12-10-12-12\14-12-14-12-14-|
E|------------------------------------------------------------------|

e|----------|
B|----------|
G|----------|
D|----------|
A|-12-14-12-|
E|----------|

Then the second guitar plays the Guitar Intro again
but at the end of it, it changes to this:
e|-----------------------------------------------------------------------|
B|-------------15-15-17-15-12--17-15-17-15-17-15-17-15-17-(repeat-15-17)-|
G|-------14-16-----------------------------------------------------------|
D|----14-----------------------------------------------------------------|
A|-12--------------------------------------------------------------------|
E|-----------------------------------------------------------------------|

While the one guitar is repeating 15-17 on "B" the
first guitar is picking
steady 14's with bends on "D".

******************************************************
Brett J. Ardiel
     
Добавлено: 01.09.2013
Другие материалы по этой песне:
  • Аккорды и текст

Страница создана 01.09.2013
http://primanota.ru/local-h/manifest-density-pt-2-chords.htm
Привет, Гость.
Предлагаем пройти революционный курс по гитаре.
Подарок от PrimaNota.Ru, забирай!