PrimaNota.ru - самый крупный в мире бесплатный архив песенных текстов, аккордов, табулатур и нот


Local H - High Fiving Mf - аккорды и текст, видео

Регистрация Запомнить меня
Войти через:  Facebook Google Twitter Vk Yandex Mail.ru

Local H - High Fiving Mf - аккорды и текст, видео

Печатать
Просмотров: 128
High Fiving Mf
Local H
"High Fiving MF" by Local H
off of "As Good As Dead"

(Tuning: Drop-D)

Tabbed by: Brett Ardiel
email: twilightdark@canada.com
icq: 75454405

*LEGEND*
Slide     = /
Dead Note = x
Harmonics = ()
Strum Up  = ^
Palm Mute = #
Bend      = ~

Intro
e|-0------------------------------|
B|-0------------------------------|
G|-0--feedback-and-strange-noises-|
D|-0------------------------------|
A|-0------------------------------|
D|-0------------------------------|

Verse
e|-----------------------------------------------|
B|-----------------------------------------------|
G|-----------------------------------------------|
D|-5-5-3-3-0-0-3-3-5-5-x-5--3-0-3-5--5-3-0-3-5-5-|
A|-5-5-3-3-0-0-3-3-5-5-x-5--3-0-3-5--5-3-0-3-5-5-|
D|-5-5-3-3-0-0-3-3-5-5-x-5--3-0-3-5--5-3-0-3-5-5-|

Chorus
e|---------------------------|
B|---------------------------|
G|---------------------------|
D|-5-5-3-3-0-0-3-3-5-5-3-3-0-|
A|-5-5-3-3-0-0-3-3-5-5-3-3-0-|
D|-5-5-3-3-0-0-3-3-5-5-3-3-0-|

Interlude 1
"You crass fat ass"
e|----------------------------------|
B|----------------------------------|
G|--7-7-7-7-7-7-7-7-7-7-7-7-7-7-7-7-|
D|--0-0-----------------------------|
A|--0-0-----------------------------|
D|--0-0-----------------------------|

Interlude 2
"You want me, you get me"
e|-------------------------------------------------------|
B|-------------------------------------------------------|
G|-------------------------------------------------------|
D|-3-3-3-3-3-3-3-3-3-3-3-3-3-0-0-0-0-0-0-0-0-0-0-0-0-0-0-|
A|-3-3-3-3-3-3-3-3-3-3-3-3-3-0-0-0-0-0-0-0-0-0-0-0-0-0-0-|
D|-3-3-3-3-3-3-3-3-3-3-3-3-3-0-0-0-0-0-0-0-0-0-0-0-0-0-0-|

Interlude 3 - Just before Outro
e|-----------------|
B|-----------------|
G|-----------------|
D|-5-5-3-3-0-0-3-3-|
A|-5-5-3-3-0-0-3-3-|
D|-5-5-3-3-0-0-3-3-|

Outro
e|-----------------|
B|-----------------|
G|-----------------|
D|-5-5-5-3-3-3-0-0-|
A|-5-5-5-3-3-3-0-0-|
D|-5-5-5-3-3-3-0-0-|

******************************************************
Brett J. Ardiel
     
Добавлено: 06.08.2013
Другие материалы по этой песне:
  • Аккорды и текст

Страница создана 06.08.2013
http://primanota.ru/local-h/high-fiving-mf-2-chords.htm
Привет, Гость.
Предлагаем пройти революционный курс по гитаре.
Подарок от PrimaNota.Ru, забирай!