PrimaNota.ru - самый крупный в мире бесплатный архив песенных текстов, аккордов, табулатур и нот


Local H - Hazer - таба, видео

Регистрация Запомнить меня
Войти через:  Facebook Google Twitter Vk Yandex Mail.ru

Local H - Hazer - таба, видео

Печатать
Просмотров: 242
Artist: Local H
Song: Hazer
Album: '99-'00 Demos
Listen to it here: http://www.youtube.com/watch?v=H-CxP1DLe8A

Tuning: Half Step Down

It's basically the same riff over and over. Listen to the song for the strumming. Scott 
plays it kind of sloppy.


0:00-0:08
Eb:----------------------------------------|
Bb:----------------------------------------|
Gb:--------------------------------------5-|
Db:-5/7xx7\5xx5/7xx7\5xx5/7xx7\5xx5/7xx775-|
Ab:-5/7xx7\5xx5/7xx7\5xx5/7xx7\5xx5/7xx773-|
Eb:-3/5xx5\3xx3/5xx5\3xx3/5xx5\3xx3/5xx50--|

0:09-0:20                   0:20-0:35
Eb:--------------------|    :------------------------------|
Bb:--------------------|    :------------------------------|
Gb:------------------5-|    :--------------------------(7)-|
Db:-5/7xx7\5xx5/7xx775-|X3=>:-5/7xx7\5xx5/7xx7\5xx7r~--(7)-|
Ab:-5/7xx7\5xx5/7xx773-|    :-5/7xx7\5xx5/7xx7\5xx7r~--(5)-|
Eb:-3/5xx5\3xx3/5xx50--|    :-3/5xx5\3xx3/5xx5\3xx5r~------|

0:35-0:38
Eb:-------------------------|
Bb:-------------------------|
Gb:-------------------------|
Db:-5/7xx7\5xx5/7xx7\5xx(5)-|
Ab:-5/7xx7\5xx5/7xx7\5xx(5)-|
Eb:-3/5xx5\3xx3/5xx5\3xx(3)-|

0:38-0:51
Eb:-------------------------------------------------------------------------|
Bb:-------------------------------------------------------------------------|
Gb:--------777777--------101010101010--------------151515151515-------------|
Db:-777777-777777-888888-101010101010-101010101010-151515151515-88888888888-|
Ab:-777777-555555-888888--8-8-8-8-8-8-101010101010-131313131313-88888888888-|
Eb:-555555--------666666---------------8-8-8-8-8-8--------------66666666666-|


0:52-1:03                   1:03-1:19
Eb:--------------------|    :------------------------------|
Bb:--------------------|    :------------------------------|
Gb:------------------5-|    :--------------------------(7)-|
Db:-5/7xx7\5xx5/7xx775-|X3=>:-5/7xx7\5xx5/7xx7\5xx7r~--(7)-|==>
Ab:-5/7xx7\5xx5/7xx773-|    :-5/7xx7\5xx5/7xx7\5xx7r~--(5)-|
Eb:-3/5xx5\3xx3/5xx50--|    :-3/5xx5\3xx3/5xx5\3xx5r~------|

1:19-1:22
Eb:-------------------------|
Bb:-------------------------|
Gb:-------------------------|
Db:-5/7xx7\5xx5/7xx7\5xx(5)-|
Ab:-5/7xx7\5xx5/7xx7\5xx(5)-|
Eb:-3/5xx5\3xx3/5xx5\3xx(3)-|

1:22-1:35
Eb:-------------------------------------------------------------------------|
Bb:-------------------------------------------------------------------------|
Gb:--------777777--------101010101010--------------151515151515-------------|
Db:-777777-777777-888888-101010101010-101010101010-151515151515-88888888888-|
Ab:-777777-555555-888888--8-8-8-8-8-8-101010101010-131313131313-88888888888-|
Eb:-555555--------666666---------------8-8-8-8-8-8--------------66666666666-|

1:37-1:44
Eb:--------------------------------------------------------|
Bb:--------------------------------------------------------|
Gb:-----5------5------5------5------5------5------5------5-|
Db:-5/7-5--5/7-5--5/7-5--5/7-5--5/7-5--5/7-5--5/7-5--5/7-5-|
Ab:-5/7-3--5/7-3--5/7-3--5/7-3--5/7-3--5/7-3--5/7-3--5/7-3-|
Eb:-3/5----3/5----3/5----3/5----3/5----3/5----3/5----3/5---|


1:44-155                    1:55-2:00
Eb:--------------------|    :---------------------------|
Bb:--------------------|    : -----------------------5h-|
Gb:------------------5-|    :------------------------5h-|
Db:-5/7xx7\5xx5/7xx775-|X3=>:-5/7xx7\5xx5/7xx7\5xx77-5h-|
Ab:-5/7xx7\5xx5/7xx773-|    :-5/7xx7\5xx5/7xx7\5xx77-5h-|
Eb:-3/5xx5\3xx3/5xx50--|    :-3/5xx5\3xx3/5xx5\3xx05----|

1:44-2:00
Eb------------------------------| It's not exactly what Scott plays, but, it's
Bb------------------------------| close enough.
Gb-15b15b15b15b15b15b13131313-|
Db----------------------------|
Ab----------------------------|
Eb----------------------------|

2:00-2:14
Eb----------------------------------------| There's different harmonic hits
Bb----------------------------------------| throughout this part.
Gb----------------------------------------|
Db----------------------------------------|
Ab----------------------------------------|
Eb-3/5xx5\3xx3/5xx5\3xx3/5xx5\3xx3/5xx5\3-|

2:14-2:42
Eb--------------------| Listen to the song for this part.
Bb--------------------| It's this pattern but it has little variations
Gb------------------5-| here and there
Db------------------5-|
Ab------------------3-|
Eb-3/5xx5\3xx3/5xx50--|

2:42-2:57
Eb:--------------------|    :-------------------------|
Bb:--------------------|    :-------------------------|
Gb:------------------5-|    :-------------------------|
Db:-5/7xx7\5xx5/7xx775-|X3=>:-5/7xx7\5xx5/7xx7\5xx(5)-|
Ab:-5/7xx7\5xx5/7xx773-|    :-5/7xx7\5xx5/7xx7\5xx(5)-|
Eb:-3/5xx5\3xx3/5xx50--|    :-3/5xx5\3xx3/5xx5\3xx(3)-|

2:57-3:24 (played X2)
Eb:-------------------------------------------------------------------------|
Bb:-------------------------------------------------------------------------|
Gb:--------777777--------101010101010--------------151515151515-------------|
Db:-777777-777777-888888-101010101010-101010101010-151515151515-88888888888-|
Ab:-777777-555555-888888--8-8-8-8-8-8-101010101010-131313131313-88888888888-|
Eb:-555555--------666666---------------8-8-8-8-8-8--------------66666666666-|

3:25-3:40
Eb:--------------------|
Bb:--------------------|
Gb:------------------5-|
Db:-5/7xx7\5xx5/7xx775-|X4
Ab:-5/7xx7\5xx5/7xx773-|
Eb:-3/5xx5\3xx3/5xx50--|
Добавлено: 29.07.2013
Другие материалы по этой песне:
  • Аккорды и текст

Страница создана 29.07.2013
http://primanota.ru/local-h/hazer-chords.htm
Привет, Гость.
Предлагаем пройти революционный курс по гитаре.
Подарок от PrimaNota.Ru, забирай!