PrimaNota.ru - самый крупный в мире бесплатный архив песенных текстов, аккордов, табулатур и нот


Local H - Copasetic - таба, видео

Регистрация Запомнить меня
Войти через:  Facebook Google Twitter Vk Yandex Mail.ru

Local H - Copasetic - таба, видео

Печатать
Просмотров: 109
copasetic by local h
tabbed by noah thissell

tuned half step down
main riff
---------------------------------------------------------------|
---------------------------------------------------------------|
----4--4--4-4---4--4-4--4-4-4-4--4--4--4-4---4--4-4--4-5-4-0---|
----2--2--2-2---2--2-2--2-2-2-2--0--0--0-0---0--0-0--0-0-0-0---|
----0--0--0-0---3--3-3--3-3-3-3--2--2--2-2---5--5-5--5-5-5-5---|
---------------------------------3--3--3-3---------------------|

chorus
----------------------------------------------------------------------------|
----------------------------------------------------------------------------|
----------------------------------------------------------------------------|
--7--7--7-7--10--10-10--10-10-10-10--5--5--5-5--12--12-12-------------------|
--7--7--7-7--10--10-10--10-10-10-10--5--5--5-5--12--12-12-------------------|
--5--5--5-5--8---8--8---8--8--8--8---3--3--3-3--10--10-10--7-8-7-3----------|

solo
--------------------|
--------------------|
---4--4-4-2-4b-2----|
--------------------|
--------------------|
--------------------|

ending riff
-----------------------------------------------|
-----------------------------------------------|
----4--4--4-4---4--4-4--4-4-4-4--4--4--4-4---4-|
----2--2--2-2---2--2-2--2-2-2-2--0--0--0-0---0-|
----0--0--0-0---3--3-3--3-3-3-3--2--2--2-2---5-|
---------------------------------3--3--3-3-----|

main riff X6
chorus X2
main riff X4
chorus X6
solo X16
chorus X4   w/ solo X6
main riff X1
ending riff X1
Добавлено: 26.05.2012
Другие материалы по этой песне:

Страница создана 03.03.2012
http://primanota.ru/local-h/copasetic-chords.htm
Привет, Гость.
Предлагаем пройти революционный курс по гитаре.
Подарок от PrimaNota.Ru, забирай!