PrimaNota.ru - самый крупный в мире бесплатный архив песенных текстов, аккордов, табулатур и нот


Local H - Bound To The Floor - бас-таба, видео

Регистрация Запомнить меня
Войти через:  Facebook Google Twitter Vk Yandex Mail.ru

Local H - Bound To The Floor - бас-таба, видео

Печатать
Просмотров: 230
G|-----------------------------------|
D|-----------------------------------|
A|--------2-22-222----------4-44-444-|
E|-4-4-442--------42-2-2-224--------2|

G|-----------------------------------|
D|-----------------------------------| (play this sometimes)
A|--------2-22-222----------4-44--2--|
E|-4-4-442--------42-2-2-224-----4-42|

chorus

G|-------------------------------|
D|-------------------------------|
A|--------2222222--------44444444|
E|-4444442-------42222224--------|

G|-------------------------------|
D|-------------------------------|  (play this sometimes)
A|--------2222222--------4444-2--|
E|-4444442-------42222224----4-42|
Добавлено: 31.07.2012
Другие материалы по этой песне:
  • Аккорды и текст

Страница создана 31.07.2012
http://primanota.ru/local-h/bound-to-the-floor-chords.htm
Привет, Гость.
Предлагаем пройти революционный курс по гитаре.
Подарок от PrimaNota.Ru, забирай!