PrimaNota.ru - самый крупный в мире бесплатный архив песенных текстов, аккордов, табулатур и нот


Local H - Back In The Day - аккорды и текст, таба, бас-таба, видео

Регистрация Запомнить меня
Войти через:  Facebook Google Twitter Vk Yandex Mail.ru

Local H - Back In The Day - аккорды и текст, таба, бас-таба, видео

Печатать
Просмотров: 131
Back In The Day
Local H
"Back in the Day" by Local H
off of "As Good As Dead"

(Tuning: Standard)

Tabbed by: Brett Ardiel
email: twilightdark@canada.com
icq: 75454405

*LEGEND*
Slide     = /
Dead Note = x
Harmonics = ()
Strum Up  = ^
Palm Mute = #
Bend      = ~

Chorus
e|-------------------------------------------|
B|-------------------------------------------|
G|---------44-----222-55-444-----4---222-----|
D|-222-555-44-333-222-55-444-555-4-5-222-333-|
A|-222-555-22-333-000-33-222-555-2-5-000-333-|
E|-000-333----111------------333---3-----111-|

Verse
e|-------------|
B|-------------|
G|----------4--| Repeat
D|--2-x-5-x-4--|
A|--2-x-5-x-2--|
E|--0-x-3-x----|

This is the other part of the verse,
I'm not sure if this is completely
correct, but its so distorted, I don't
think it really matters.
e|---------------------------------|
B|---------------------------------|
G|---------------------------------|
D|--2-2-2-2-2-2-2-6-6-6-6-6-6-6-5--|
A|--2-2-2-2-2-2-2-6-6-6-6-6-6-6-5--|
E|--0-0-0-0-0-0-0-4-4-4-4-4-4-4-3--|

Interlude 1
e|-----------------|
B|-----------------|
G|------/10-10-10--| Repeat
D|--2-x------------|
A|--2-x------------|
E|--0-x------------|

Interlude 2        
e|-----------------|
B|-----------------|
G|--9-x-/10-10-10--| Repeat
d|--9-x-/-X--X--X--|
A|--7-x-/-8--8--8--|
E|-----------------|

Last riff is chorus with another guitar
picking steady 9's ont the "G" string.

     
Добавлено: 25.08.2013
Другие материалы по этой песне:

Страница создана 27.03.2012
http://primanota.ru/local-h/back-in-the-day-chords.htm
Привет, Гость.
Предлагаем пройти революционный курс по гитаре.
Подарок от PrimaNota.Ru, забирай!