PrimaNota.ru - самый крупный в мире бесплатный архив песенных текстов, аккордов, табулатур и нот


Loc Dog - Тише тише это сердце моё бьётся - аккорды и текст, видео

Регистрация Запомнить меня
Войти через:  Facebook Google Twitter Vk Yandex Mail.ru

Loc Dog - Тише тише это сердце моё бьётся - аккорды и текст, видео

Печатать
Просмотров: 453
Тише тише это сердце моё бьётся
Loc Dog
Соло+перебор:
     Em
E||--------------------|-----------------|-----------------|------------------|
B||---------0---1------|--0--------------|--------1--------|--0-1-3-3--1------|
G||------2-------------|------2----------|--2-------2---2--|------------------|
D||----2---2--2---2----|----0----2-------|------3-----3----|------------------|
A||--0-----------------|------------3----|--3--------------|--2---------------|
E||------------0-------|--3--------------|-----------------|------------------|
Соло:
E||--------------------|-----------------|-----------------|------------------|
B||---------0---1------|--0--------------|-----------------|--0-1-3-3--1------|
G||------2-------------|------2----------|--2--------------|------------------|
D||--------------------|---------2-------|-----------------|------------------|
A||--------------------|------------3----|--3--------------|--2---------------|
E||--------------------|-----------------|-----------------|------------------|



Am
Тише, тише... это сердце моё бьётся!
G
Без тебя остаётся на закате солнца,
Em
Подойди поближе и улыбнись малыш!
Тише, тише... это сердце моё бьётся!
Без тебя остаётся на закате солнца,
Подойди поближе и улыбнись малыш!


Полгода прошли, как дожди и метели.
Мы с тобой хотели любить побыстрее,
Дай мне это. Дай мне, прошу, любовь, не разжигая костёр в сердце моём!
Не уезжай далеко, побудь со мной немного, ради Бога! Будет не проста дорога.
Вцепись в мою руку и поцелуй крепко - и будет лучше, чем закат лета.
Не уезжай, прошу, подумай - не спеши!
Из пустоты превращаем жизнь в свои мечты.
И будет больно, если ты уедешь - уедешь далеко и любовь не согреешь!
За окном тишина - тебя тут нет,
Я превращаюсь в ангела, я полечу на небо.
В любом городе без тебя потухнет огонь...
И пока живет любовь - будь с тобой...

Тише, тише... это сердце моё бьётся!
Без тебя остаётся на закате солнца,
Подойди поближе и улыбнись малыш!
Тише, тише... это сердце моё бьётся!
Без тебя остаётся на закате солнца,
Подойди поближе и улыбнись малыш!

Сильнее боли, когда тебя нету со мной, когда ты рядом любовь кажется мне ядом,
я не найду такую, вторую как ты...
Я потерян между небом и куском земли,
Если был не прав - прости меня за это!
Я улечный поэт, а не романтик неба, ты девочка самая лучшая в моих глазах!
Каждый твой шаг меня радует, как так...?
Будь со мной хотя бы, прошу, не много...
Чтобы я запомнил твоё дыхание и голос!
Не оставляй после себя чёрных полос, массу негатива и однотонных слов!
Любовь это как приключения в космос.
Всегда одно слово - осознанно твёрдое.
Ты не скажешь просто так "я люблю тебя"...
Если любишь не уезжай, прошу, без меня!

Тише, тише... это сердце моё бьётся!
Без тебя остаётся на закате солнца,
Подойди поближе и улыбнись малыш!
Тише, тише... это сердце моё бьётся!
Без тебя остаётся на закате солнца,
Подойди поближе и улыбнись малыш!

Одно слово - оно стоит передо мной,
Одно правило - идёт само за собой,
И никто никогда нам не помешает,
Жизнь такая штука - всё сама решает...
Ты не можешь понять, как я сильно, сильно люблю тебя,
Выбирая из головы опять те мечты, ловя те потери, 
те обиды - всё, что мы не хотели!!!
Эта песня... только для тебя, ничего не говори,
Это всё не зря, а взамен попрошу только тебя остаться, 
быть рядом и всегда улыбаться!
Много дней пролетело, как минута... Я влюблен, КАТЬ, и это просто мука!
Пусть тот день останется в наших сердцах - не забудь меня, а я не забуду тебя!

Тише, тише... это сердце моё бьётся!
Без тебя остаётся на закате солнца,
Подойди поближе и улыбнись малыш!
Тише, тише... это сердце моё бьётся!
Без тебя остаётся на закате солнца,
Подойди поближе и улыбнись малыш!
Тише, тише... это сердце моё бьётся!
Без тебя остаётся на закате солнца,
Подойди поближе и улыбнись малыш!
Тише, тише... это сердце моё бьётся!
Без тебя остаётся на закате солнца,
Подойди поближе и улыбнись малыш!
Тише, тише... это сердце моё бьётся!
Без тебя остаётся на закате солнца,
Подойди поближе и улыбнись малыш!
Тише, тише... это сердце моё бьётся!
Без тебя остаётся на закате солнца,
Подойди поближе и улыбнись малыш!
Добавлено: 19.01.2014
Другие материалы по этой песне:
  • Аккорды и текст

Страница создана 19.01.2014
http://primanota.ru/loc-dog/tishe-tishe-eto-serdce-moe-betsya-chords.htm
Привет, Гость.
Предлагаем пройти революционный курс по гитаре.
Подарок от PrimaNota.Ru, забирай!