PrimaNota.ru - самый крупный в мире бесплатный архив песенных текстов, аккордов, табулатур и нот


Lobo - We'll Be One by Two Today - текст песни, бас-таба, видео

Регистрация Запомнить меня
Войти через:  Facebook Google Twitter Vk Yandex Mail.ru

Lobo - We'll Be One by Two Today - текст песни, бас-таба, видео

Печатать
Просмотров: 18
Уроки эстрадного вокала в Санкт-Петербурге
Tabbed by: 6METAL6BASSIST6
E-mail: petergriffinav@gmail.com

Tuning: EADG

G|----------------------------------------------------------------|
D|----------------------------------------------------------------|
A|6---------------6---------------6---------------6---------------|
E|--------6---------------6---------------6---------------6-------|

0:06

G|----------------------------------------------------------------|
D|----------------------------5---6---------------6-------6---7---|
A|6---------------6-------8---------------6-----------------------|
E|--------6-------------------------------------------------------|

G|----------------------------------------------------------------|
D|8---------------8-----------------------------------------------|
A|--------8-------------------5---6---------------6-----------5---|
E|------------------------6---------------6-----------6---8-------|

G|----------------------------------------------------------------|
D|----------------------------5---6---------------6-----------7---|
A|6---------------6-------8---------------6---------------6-------|
E|--------6-------------------------------------------------------|

G|----------------------------------------------------------------|
D|8---------------8-----------------------------------------------|
A|--------8-------------------5---6---------------6---------------|
E|------------------------6---------------6---------------6-------|

G|------------------------------------|
D|----------------------------5-------|
A|6---------------6---6---8-----------|
E|--------6---------------------------|

0:27

G|----------------------------------------------------------------|.
D|6-----------6-------------------6-----------6-----------6-------|.
A|----------------6-----------6-------------------6-----------6---|.
E|----------------------------------------------------------------|.
                                                                   . x2
G|----------------------------------------------------------------|.
D|------------------------------------------------------------5---|.
A|8-----------8-------------------6-----------6---6---6---8-------|.
E|----------------8-----------8-----------------------------------|.

G|--------------------------------------------------------------------------------|
D|6---------------8---------------6---------------8-------8-----8-8---------------|
A|----------------------------------------------------------------------------5---|
E|--------------------------------------------------------------------6---8-------|

0:52

G|----------------------------------------------------------------|
D|----------------------------5---6---------------6-----------7---|
A|6---------------6-------8---------------6---------------6-------|
E|--------6-------------------------------------------------------|

G|----------------------------------------------------------------|
D|8---------------8-----------------------------------------------|
A|--------8-------------------5---6---------------6-----------5---|
E|------------------------6---------------6-----------6---8-------|

G|----------------------------------------------------------------|
D|----------------------------5---6---------------6-------6---7---|
A|6---------------6-------8---------------6-----------------------|
E|--------6-------------------------------------------------------|

G|----------------------------------------------------------------|
D|8---------------8-----------------------------------------------|
A|--------8-------------------5---6---------------6---------------|
E|------------------------6---------------6---------------6-------|

G|------------------------------------|
D|----------------------------5-------|
A|6---------------6---6---8-----------|
E|--------6---------------------------|

1:15

G|----------------------------------------------------------------|.
D|6-----------6-------------------6-----------6-----------6-------|.
A|----------------6-----------6-------------------6-----------6---|.
E|----------------------------------------------------------------|.
                                                                   . x2
G|----------------------------------------------------------------|.
D|------------------------------------------------------------5---|.
A|8-----------8-------------------6-----------6---6---6---8-------|.
E|----------------8-----------8-----------------------------------|.

G|--------------------------------------------------------------------------------|
D|6---------------8---------------6---------------8-------8-----8-8---------------|
A|----------------------------------------------------------------------------5---|
E|--------------------------------------------------------------------6---8-------|

1:39

G|----------------------------------------------------------------|
D|----------------------------5---6---------------6-----------7---|
A|6---------------6-------8---------------6---------------6-------|
E|--------6-------------------------------------------------------|

G|----------------------------------------------------------------|
D|8---------------8-----------------------------------------------|
A|--------8-------------------5---6---------------6-----------5---|
E|------------------------6---------------6-----------6---8-------|

G|----------------------------------------------------------------|
D|----------------------------5---6---------------6-----------7---|
A|6---------------6-------8---------------6-----------------------|
E|--------6-------------------------------------------------------|

G|----------------------------------------------------------------|
D|8---------------8-----------------------------------------------|
A|--------8-------------------5---6---------------6---------------|
E|------------------------6---------------6---------------6-------|

G|------------------------------------|
D|----------------------------5-------|
A|6---------------6---6---8-----------|
E|--------6---------------------------|

2:01

G|----------------------------------------------------------------|
D|6-----------6-------------------6-----------6-----------6-------|
A|----------------6-----------6-------------------6-----------6---|
E|----------------------------------------------------------------|

G|----------------------------------------------------------------|
D|------------------------------------------------------------5---|
A|8-----------8-------------------6-----------6---6---6---8-------|
E|----------------8-----------8-----------------------------------|

G|----------------------------------------------------------------|
D|6-----------6-------------------6-----------6-----------6-------|
A|----------------6-----------6-------------------6-----------6---|
E|----------------------------------------------------------------|

G|----------------------------------------------------------------|
D|------------------------------------------------------------5---|
A|8-----------8---8-----------8---6-----------6---6---6---8-------|
E|----------------------------------------------------------------|

G|--------------------------------------------------------------------------------|
D|6---------------8---------------6---------------8-------8-----8-8---------------|
A|----------------------------------------------------------------------------5---|
E|--------------------------------------------------------------------6---8-------|

2:26

G|----------------------------------------------------------------|
D|----------------------------5---6---------------6-------6---7---|
A|6---------------6-------8---------------6-----------------------|
E|--------6-------------------------------------------------------|

G|----------------------------------------------------------------|
D|8-----------------------8---------------------------------------|
A|----------------8-----------8---6---------------6-----------5---|
E|--------6-------------------------------6-----------6---8-------|

G|----------------------------------------------------------------|
D|----------------------------5---6---------------6-------6---7---|
A|6---------------6-------8---------------6-----------------------|
E|--------6-------------------------------------------------------|

G|----------------------------------------------------------------|
D|8---------------8-----------------------------------------------|
A|--------8-------------------5---6---------------6-----------5---|
E|------------------------6---------------6-----------6---8-------|

2:45

G|----------------------------------------------------------------|
D|--------------------------5-----6---------------6-------6-7-----|
A|6---------------6-----6-8---------------6-------------6---------|
E|--------6-------------------------------------------------------|

G|----------------------------------------------------------------|
D|8---------------8-----------------------------------------------|
A|--------8-----------------5-----6---------------6---------5-----|
E|----------------------6-8---------------6-------------6-8-------|

G|----------------------------------------------------------------|
D|--------------------------5-----6---------------6-------6-7-----|
A|6---------------6-----6-8---------------6-------------6---------|
E|--------6-------------------------------------------------------|

G|----------------------------------------------------------------|
D|8---------------8-----------------------------------------------|
A|--------8-----------------5-----6-------------6-6-----------5---|
E|----------------------6-8---------------6-----------6---8-------|

3:04

G|----------------------------------------------------------------|
D|--------------------------5---5-6---------------6---------6---7-|
A|6---------------6-----6-8---------------6-------------6---------|
E|--------6-------------------------------------------------------|

G|----------------------------------------------------------------|
D|8---------------8-----------------------------------------------|
A|--------8-----8-----------5---5-6-------------6-6-----------5---|
E|------------------6---8-----------------6---------6-----8-------|

G|----------------------------------------------------------------|
D|--------------------------5---5-6---------------6-------6-----7-|
A|6-------------6-6-6---8-----------------6-------------6---------|
E|--------6-------------------------------------------------------|

G|----------------------------------|
D|8---------------8-----------------| fades out here.
A|--------8-----8-----------5---5-6-|
E|------------------6---8-----------|
Добавлено: 13.09.2017
Другие материалы по этой песне:
  • Аккорды и текст

Страница создана 10.08.2013
http://primanota.ru/lobo/well-be-one-by-two-today-chords.htm
Привет, Гость.
Предлагаем пройти революционный курс по гитаре.
Подарок от PrimaNota.Ru, забирай!