PrimaNota.ru - самый крупный в мире бесплатный архив песенных текстов, аккордов, табулатур и нот


Lo Tel - Crucifix - аккорды и текст, таба, видео

Регистрация Запомнить меня
Войти через:  Facebook Google Twitter Vk Yandex Mail.ru

Lo Tel - Crucifix - аккорды и текст, таба, видео

Печатать
Просмотров: 74
Crucifix
Lo Tel
Band : Lo-Tel
Album: Planet of the stereos
Track : Crucifix
Duration:3:28
Tabbed by al  alex_tees@hotmail.com>

chords used
F#5 Ab5  B5 C#5

|------------------------------------|
|------------------------------------|
|------4-4------6-6-----4-4-----6--|
|--4-6-4-4--4-6-6-6-4-6-4-4-4-6-6--|
|--4-6-2-2--4-6-4-4-4-6-2-2-4-6-4--|
|--2-4------2-4-----2-4-----2-4----|X2 INTRO

X2 FOR FIRST VERSE

PRE-CHORUS
|-----|
|-----|
|-----|
|--4--|
|--4--|
|--2--|
pm.....

CHORUS
|----------------------------------------------|
|----------------------------------------------|
|--4-4-4-4-4-----------4-4-4-4-4------------|
|--4-4-4-4-4-6-6-6-6-6-4-4-4-4-4-4-4-4-4-4--|
|--2-2-2-2-2-6-6-6-6-6-2-2-2-2-2-4-4-4-4-4--|
|------------4-4-4-4-4-----------2-2-2-2-2--| x2 Really filtered, chorus 
mainly keyboards
OOHH OOHH OOHH part
|----------------------------------------------
|----------------------------------------------
|--4-4-4-4-4-----------4-4-4-4-4------------
|--4-4-4-4-4-6-6-6-6-6-4-4-4-4-4-4-4-4-4-4--
|--2-2-2-2-2-6-6-6-6-6-2-2-2-2-2-4-4-4-4-4--
|------------4-4-4-4-4-----------2-2-2-2-2--x1

------------------------|
------------------------|
--4-4-4-4-4------------|
--4-4-4-4-4-6-6-6-6-6--|
--2-2-2-2-2-6-6-6-6-6--|
------------4-4-4-4-4--|x1 go into intro riff(see below)

PRE-VERSE INTRO RIFFX 1
VERSE 2 INTRO RIFFX2

PRE-CHORUS same

CHORUS same

OOHH OOOHH  OHHH part same

INTRO RIFF X1

BRIDGE NO GUITAR/ HIGHLY FILTERED?? BASS AND DRUMS mainly

CHORUSX4
     
Добавлено: 02.07.2013
Другие материалы по этой песне:
  • Аккорды и текст

Страница создана 02.07.2013
http://primanota.ru/lo-tel-2/crucifix-chords.htm
Привет, Гость.
Предлагаем пройти революционный курс по гитаре.
Подарок от PrimaNota.Ru, забирай!