PrimaNota.ru - самый крупный в мире бесплатный архив песенных текстов, аккордов, табулатур и нот


Lo Stato Sociale - La Musica Non è Una Cosa Seria - аккорды и текст, видео

Регистрация Запомнить меня
Войти через:  Facebook Google Twitter Vk Yandex Mail.ru

Lo Stato Sociale - La Musica Non è Una Cosa Seria - аккорды и текст, видео

Печатать
Просмотров: 125
La Musica Non è Una Cosa Seria
Lo Stato Sociale
-------------------------------------------------------------------------------
                             La Musica Non È Una Cosa Seria - Lo Stato Sociale
-------------------------------------------------------------------------------
Tabbed by: Caterina Scopelliti
https://www.facebook.com/caterinascopellitiofficial
Tuning: eBGDAE

intro:
e|-----------------------------------------|
B|-3-0------------3-0----------1-1-1-3-----|
G|-----0-0-0-0-2------0-0-0-2----------0-0-|
D|-----------------------------------------|
A|-----------------------------------------|
E|-----------------------------------------| x2

               Am           C              G

       C
Vuoi venire con me? Oggi ho tanta paura,
      G                     D
questo mondo è selvaggio, un pò contro natura
    C
sole spaccami gli occhi, notte fammi male,
      G                    D
se son stato felice certo, era illegale
C
passerò col vento, passerà il momento,
G                    D
passerai per sempre, passerà la gente
C
passerò col vento, passerà il momento,
G                    D
passerai per sempre, passerà la gente
C                 G
portami ovunque ma che sia lontano,
    C           G
lontano da casa mia
Am              G          D              G
dove obbedire è lecito, ribellarsi è cortesia

e|-----------------------------------------|
B|-3-0------------3-0----------1-1-1-3-----|
G|-----0-0-0-0-2------0-0-0-2----------0-0-|
D|-----------------------------------------|
A|-----------------------------------------|
E|-----------------------------------------| x2

               Am           C              G

   C
la musica ti salva, ti riduce in miseria,
   G                               D
la musica ti uccide, la musica non è una cosa seria
        C
a volte sogno al contrario, spesso ho nostalgia,
       G                         D
un bel giorno che piove, vieni e portami via
C
passerò col vento, passerà il momento,
G                    D
passerai per sempre, passerà la gente
C
passerò col vento, passerà il momento,
G                    D
passerai per sempre, passerà la gente
    C             G          C               G
l'amore non costa niente, il tempo è una malattia,
   Am                     G                Am      D
il vino è un sogno con le gambe storte che fai da sveglio
C                 G
tu portami ovunque ma che sia lontano,
    C           G
lontano da casa mia
Am              G          D           G
dove fidarsi è bene, ribellarsi è meglio (ribellarsi è meglio)

e|-----------------------------------------|
B|-3-0------------3-0----------1-1-1-3-----|
G|-----0-0-0-0-2------0-0-0-2----------0-0-|
D|-----------------------------------------|
A|-----------------------------------------|
E|-----------------------------------------|

               Am           C              G

solo:
e|-------------------------------------------------------0----------------------0---------------------0-------|
B|-3-0---------------0----------------3-3-3-3-3-0-3-0--3---0---0----3-0-----3-3---0-3-0----3-0-3-0--3---0---0-|
G|------0-0-0-----------0-0-0-0-2----------------------------2----2-----2-0--------------2----------------2---|
D|--------------2---------------------------------------------------------------------------------------------|
A|------------------------------------------------------------------------------------------------------------|
E|------------------------------------------------------------------------------------------------------------|

                Am              C             G                     Am           C       
   G

e|----------------0-------------------------0-------------------------0-------------------------0-------------|
B|---3-0------3-3---0---0----3-0-3-0--3-3-3---0---0----3-0------3-3-3---0-3-0----3-0-3-0--3-3-3---0---0----3--|
G|-2-----2-0----------2---2---------------------2---2------2-0----------------2---------------------2---2-----|
D|------------------------------------------------------------------------------------------------------------|
A|------------------------------------------------------------------------------------------------------------|
E|------------------------------------------------------------------------------------------------------------|

     Am        C             G                          Am           C           G                 Am
e|--------------0-----------|
B|-0------3-3-3---0-3-0-----|
G|---2-0----------------2-0-|
D|--------------------------|
A|--------------------------|
E|--------------------------|
          C

outro: G
Добавлено: 10.06.2015
Вам также может быть интересно:
Другие материалы по этой песне:
  • Аккорды и текст

Страница создана 10.06.2015
http://primanota.ru/lo-stato-sociale/la-musica-non-e-una-cosa-seria-chords.htm
Привет, Гость.
Предлагаем пройти революционный курс по гитаре.
Подарок от PrimaNota.Ru, забирай!