PrimaNota.ru - самый крупный в мире бесплатный архив песенных текстов, аккордов, табулатур и нот


Lo-pro - Texas - текст песни, бас-таба, видео

Регистрация Запомнить меня
Войти через:  Facebook Google Twitter Vk Yandex Mail.ru

Lo-pro - Texas - текст песни, бас-таба, видео

Печатать
Просмотров: 255
-------------------------------------------------------------------------------
			     Texas - Lo-pro
-------------------------------------------------------------------------------

Tabbed By : This Kid

Tuning:Drop C#



Intro:

   Wait

   and then:

F#|-----------------|-----------------|-----------------|-----------------|
C#|-----------------|-----------------|-----------------|-----------------|
G#|-2---2-0-2-5-0-0-|-7-5-0-5-0-2-0-2-|-2---2-0-2-5-0-0-|-7-5-0-5-0-2-0-2-|
C#|-----------------|-----------------|-----------------|-----------------|

F#|-----------------|-----------------|-----------------|-----------------|
C#|-----------------|-----------------|-----------------|-----------------|
G#|-2---2-0-2-5-0-0-|-7-5-0-5-0-2-0-2-|-2---2-0-2-5-0-0-|-7-5-0-5-0-2-0-2-|
C#|-----------------|-----------------|-----------------|-----------------|


Verse 1:


F#|-----------------|-----------------|-----------------|-----------------|
C#|-----------------|-----------------|-----------------|-----------------|
G#|-2-2-2-2-2-2-2-2-|-2-2-2-2-2-2-2-2-|-0-0-0-0-0-0-0-0-|-0-0-0-0-0-0-0-0-|
C#|-----------------|-----------------|-----------------|-----------------|


F#|-----------------|-----------------|-----------------|-----------------|
C#|-----------------|-----------------|-----------------|-----------------|
G#|-----------------|-----------------|-----------------|-----------------|
C#|-2-2-2-2-2-2-2-2-|-2-2-2-2-2-2-2-2-|-0-0-0-0-0-0-0-0-|-0-2-2-2-2-0-0-0-|

F#|-----------------|-----------------|-----------------|-----------------|
C#|-----------------|-----------------|-----------------|-----------------|
G#|-2-2-2-2-2-2-2-2-|-2-2-2-2-2-2-2-2-|-0-0-0-0-0-0-0-0-|-0-0-0-0-0-2-2-2-|
C#|-----------------|-----------------|-----------------|-----------------|


F#|-----------------|-----------------|-----------------|-----------------|
C#|-----------------|-----------------|-----------------|-----------------|
G#|-----------------|-----------------|-----------------|---0-0-0-0-0-0-0-|
C#|-2-2-2-2-2-2-2-2-|-2-2-2-2-2-2-2-2-|-2-5-5-5-5-5-5-5-|-5---------------|




Chorus:


F#|-----------------|-----------------|-----------------|-----------------|
C#|-----------------|-----------------|-----------------|-----------------|
G#|-----------------|---0-0-0-0-0-0-0-|-2---2-0-2-5-0-0-|-7-5-0-5-0-2-0-2-|
C#|-5-5-5-5-5-5-5-5-|-5---------------|-----------------|-----------------|

F#|-----------------|-----------------|-----------------|-----------------|
C#|-----------------|-----------------|-----------------|-----------------|
G#|-----------------|---0-0-0-0-0-0-0-|-2---2-0-2-5-0-0-|-7-5-0-5-0-2-0-2-|
C#|-5-5-5-5-5-5-5-5-|-5---------------|-----------------|-----------------|

F#|-----------------|-----------------|-----------------|-----------------|
C#|-----------------|-----------------|-----------------|-----------------|
G#|-----------------|---0-0-0-0-0-0-0-|-2---2-0-2-5-0-0-|-7-5-0-5-0-2-0-2-|
C#|-5-5-5-5-5-5-5-5-|-5---------------|-----------------|-----------------|

F#|-----------------|-----------------|
C#|-----------------|-----------------|
G#|-----------------|-----------------|
C#|-5-5-5-5-5-5-5-5-|-5-0-0-0-0-0-0-0-|


Interlude:

F#|-----------------|-----------------|-----------------|-----------------|
C#|-----------------|-----------------|-----------------|-----------------|
G#|-2---2-0-2-5-0-0-|-7-5-0-5-0-2-0-2-|-2---2-0-2-5-0-0-|-7-5-0-5-0-2-0-2-|
C#|-----------------|-----------------|-----------------|-----------------|

F#|-----------------|-----------------|
C#|-----------------|-----------------|
G#|-2---2-0-2-5-0-0-|-7-5-0-5-0-2-0-2-|
C#|-----------------|-----------------|


Verse 2:

F#|-----------------|-----------------|-----------------|-----------------|
C#|-----------------|-----------------|-----------------|-----------------|
G#|-2---2-0-2-5-0-0-|-7-5-0-5-0-2-0-2-|-2---2-0-2-5-0-0-|-7-5-0-5-0-2-0-2-|
C#|-----------------|-----------------|-----------------|-----------------|

F#|-----------------|-----------------|-----------------|-----------------|
C#|-----------------|-----------------|-----------------|-----------------|
G#|-2---2-0-2-5-0-0-|-7-5-0-5-0-2-0-2-|-2---2-0-2-5-0-0-|-7-5-0-5-0-2-0-2-|
C#|-----------------|-----------------|-----------------|-----------------|

F#|-----------------|-----------------|
C#|-----------------|-----------------|
G#|-2---2-0-2-5-0-0-|-7-5-0-5-0-2-0-2-|   Wait for 2 bars
C#|-----------------|-----------------|


Chorus:

F#|-----------------|-----------------|-----------------|-----------------|
C#|-----------------|-----------------|-----------------|-----------------|
G#|-----------------|---0-0-0-0-0-0-0-|-2---2-0-2-5-0-0-|-7-5-0-5-0-2-0-2-|
C#|-5-5-5-5-5-5-5-5-|-5---------------|-----------------|-----------------|

F#|-----------------|-----------------|-----------------|-----------------|
C#|-----------------|-----------------|-----------------|-----------------|
G#|-----------------|---0-0-0-0-0-0-0-|-2---2-0-2-5-0-0-|-7-5-0-5-0-2-0-2-|
C#|-5-5-5-5-5-5-5-5-|-5---------------|-----------------|-----------------|

F#|-----------------|-----------------|-----------------|-----------------|
C#|-----------------|-----------------|-----------------|-----------------|
G#|-----------------|---0-0-0-0-0-0-0-|-2---2-0-2-5-0-0-|-7-5-0-5-0-2-0-2-|
C#|-5-5-5-5-5-5-5-5-|-5---------------|-----------------|-----------------|

F#|-----------------|-----------------|-----------------|-----------------|
C#|-----------------|-----------------|-----------------|-----------------|
G#|-----------------|-----------------|-----------------|---0-0-0-0-0-0-0-|
C#|-5-5-5-5-5-5-5-5-|-5-0-0-0-0-0-0-0-|-5-5-5-5-5-5-5-5-|-5---------------|


Bridge:

	Part 1:

F#|-----------------|-----------------|-----------------|-----------------|
C#|-----------------|-----------------|-----------------|-----------------|
G#|-2---------------|-----------------|-----------------|-----------------|
C#|-----------------|-----------------|-0---------------|-------------0//-|

F#|-----------------|-----------------|-----------------|-----------------|
C#|-----------------|-----------------|-----------------|-----------------|
G#|-----------------|-----------------|-----------------|-----------------|
C#|-5---------------|-------------7\\-|-2---------------|-----------------|


	Part 2:

F#|------------------|-----------------|-----------------|-----------------|
C#|------------------|-----------------|-----------------|-----------------|
G#|0h2-2-2-2-2-2-2-2-|-2-2-2-2-2-2-2-2-|-5-5-5-5-5-5-5-5-|-5-5-5-5-5-7-7-7-|
C#|------------------|-----------------|-----------------|-----------------|

F#|-----------------|-----------------|-----------------|-----------------|
C#|-----------------|-----------------|-----------------|-----------------|
G#|-----------------|-----------------|-----------------|-----------------|
C#|-5-5-5-5-5-5-5-5-|-5-5-5-5-5-7-7-7-|-2-2-2-2-2-2-2-2-|-2-2-2-2-2-2-2-2-|

F#|-----------------|-----------------|-----------------|-----------------|
C#|-----------------|-----------------|-----------------|-----------------|
G#|-2-2-2-2-2-2-2-2-|-2-2-2-2-2-2-2-2-|-5-5-5-5-5-5-5-5-|-5-5-5-5-5-7-7-7-|
C#|-----------------|-----------------|-----------------|-----------------|

F#|-----------------|-----------------|-----------------|-----------------|
C#|-----------------|-----------------|-----------------|-----------------|
G#|-----------------|-----------------|-----------------|-----------------|
C#|-5-5-5-5-5-5-5-5-|-5-5-5-5-5-7-7-7-|-2-2-2-2-2-2-2-2-|-2-2-2-2-2-2-2-2-|

F#|-----------------|-----------------|-----------------|-----------------|
C#|-----------------|-----------------|-----------------|-----------------|
G#|-----------------|-----------------|-0-0-0-0-0-0-0-0-|-0-0-0-0-0-0-0-0-|
C#|-5-5-5-5-5-5-5-5-|-5-5-5-5-5-5-5-5-|-----------------|-----------------|

F#|-----------------|-----------------|-----------------|-----------------|
C#|-----------------|-----------------|-----------------|-----------------|
G#|-2-2-2-2-2-2-2-2-|-2-2-2-2-2-2-2-2-|-0-2-2-2-2-2-2-2-|-2-5-5-5-5-5-5-5-|
C#|-----------------|-----------------|-----------------|-----------------|


Build up:

F#|-----------------|-----------------|-----------------|-----------------|
C#|-----------------|-----------------|-----------------|-----------------|
G#|-----------------|-----------------|-0-0-0-0-0-0-0-0-|-0-0-0-0-0-0-0-0-|
C#|-5-5-5-5-5-5-5-5-|-5-5-5-5-5-5-5-5-|-----------------|-----------------|

F#|-----------------|-----------------|-----------------|-----------------|
C#|-----------------|-----------------|-----------------|-----------------|
G#|-2-2-2-2-2-2-2-2-|-2-2-2-2-2-2-2-2-|-0-2-2-2-2-2-2-2-|-2-5-5-5-5-5-5-5-|
C#|-----------------|-----------------|-----------------|-----------------|

F#|-----------------|-----------------|-----------------|-----------------|
C#|-----------------|-----------------|-----------------|-----------------|
G#|-----------------|-----------------|-0-0-0-0-0-0-0-0-|-0-0-0-0-0-0-0-0-|
C#|-5-5-5-5-5-5-5-5-|-5-5-5-5-5-5-5-5-|-----------------|-----------------|

F#|-----------------|-----------------|-----------------|-----------------|
C#|-----------------|-----------------|-----------------|-----------------|
G#|-----------------|-----------------|-----------------|-----------------|
C#|-2-2-2-2-2-2-2-2-|-2-2-2-2-2-2-2-2-|-0-2-2-2-2-2-2-2-|-2-0-0-2-2-0-0-0-|

F#|-----------------|-----------------|-----------------|-----------------|
C#|-----------------|-----------------|-----------------|-----------------|
G#|-----------------|-----------------|-0-0-0-0-0-0-0-0-|-0-0-0-0-0-0-0-0-|
C#|-5-5-5-5-5-5-5-5-|-5-5-5-5-5-5-5-5-|-----------------|-----------------|

F#|-----------------|-----------------|-----------------|-7-9-9-7-9-7-----|
C#|-----------------|-----------------|-----------------|-------------9-7-|
G#|-----------------|-----------------|-----------------|-----------------|
C#|-0-2-2-2-2-2-2-2-|-2-2-2-2-2-2-2-2-|-0-2-2-2-2-2-2-2-|-----------------|


Chorus:

F#|-----------------|-----------------|-----------------|-----------------|
C#|-----------------|-----------------|-----------------|-----------------|
G#|-----------------|---0-0-0-0-0-0-0-|-2---2-0-2-5-0-0-|-7-5-0-5-0-2-0-2-|
C#|-5-5-5-5-5-5-5-5-|-5---------------|-----------------|-----------------|

F#|-----------------|-----------------|-----------------|-----------------|
C#|-----------------|-----------------|-----------------|-----------------|
G#|-----------------|---0-0-0-0-0-0-0-|-2---2-0-2-5-0-0-|-7-5-0-5-0-2-0-2-|
C#|-5-5-5-5-5-5-5-5-|-5---------------|-----------------|-----------------|

F#|-----------------|-----------------|-----------------|-----------------|
C#|-----------------|-----------------|-----------------|-----------------|
G#|-----------------|---0-0-0-0-0-0-0-|-2---2-0-2-5-0-0-|-7-5-0-5-0-2-0-2-|
C#|-5-5-5-5-5-5-5-5-|-5---------------|-----------------|-----------------|

F#|-----------------|-----------------|-----------------|-----------------|
C#|-----------------|-----------------|-----------------|-----------------|
G#|-----------------|-----------------|-----------------|---0-0-0-0-0-0-0-|
C#|-5-5-5-5-5-5-5-5-|-5-0-0-0-0-0-0-0-|-5-5-5-5-5-5-5-5-|-5---------------|



Outro:

F#|-----------------|-----------------|-----------------|-----------------|
C#|-----------------|-----------------|-----------------|-----------------|
G#|-2---------------|-----------------|-----------------|-----------------|
C#|-----------------|-----------------|-----------------|-----------------|

One of the most underrated artists/songs of all time. Enjoy!


| /  slide up
| \  slide down
| h  hammer-on
| p  pull-off
| ~  vibrato
| +  harmonic
| x  Mute note
===============================================================================
Добавлено: 26.03.2012
Вам также может быть интересно:
Другие материалы по этой песне:
  • Аккорды и текст

Страница создана 26.03.2012
http://primanota.ru/lo-pro/texas-chords.htm
Привет, Гость.
Предлагаем пройти революционный курс по гитаре.
Подарок от PrimaNota.Ru, забирай!