PrimaNota.ru - самый крупный в мире бесплатный архив песенных текстов, аккордов, табулатур и нот


Lo-pro - Fake - текст песни, таба, видео

Регистрация Запомнить меня
Войти через:  Facebook Google Twitter Vk Yandex Mail.ru

Lo-pro - Fake - текст песни, таба, видео

Печатать
Просмотров: 143
Уроки эстрадного вокала в Санкт-Петербурге
Tabbed by Piotr Harmacinski

incunabulum@op.pl

A great song by a great band. Hope you enjoy the song as I did. I'm pretty sure
the tab sounds well, if you have corrections please mail me.

Intro

e-----------------------------------------|
B-----------------------------------------|
G---2--------2----------------------------|
D---2--3--3--2--3--3--3--3--3--3----------|
A---0--3--3--0--3--3--3--3--3--3----------|
E------1--1-----1--1--1--1--1--1----------| x4

Verse

e-----------------------------------------|
B---------------------------6--6----------|
G---2--------2--------------5--5----------|
D---2--3--3--2--3--3--3--3--3--3----------|
A---0--3--3--0--3--3--3--3----------------|
E------1--1-----1--1--1--1----------------| x4

pm...


e-----------------------------------------|
B-----------------------------------------|
G---2--------2----------------------------|
D---2--3--3--2--3--3--3--3--3--3----------|
A---0--3--3--0--3--3--3--3--3--3----------|
E------1--1-----1--1--1--1--1--1----------| x4


Chorus 1

e---3--3--3--3--3--3--3--3--3-------------------------------|
B---1--1--1--1--1--1--1--1--1-------------------------------|
G---0--0--0--0--2--0--2--0--0-------------------------------|
D---2--2--2--2--2--2--2--2--2--5--5--5--5--5--5--5--5--5----|
A------------------------------3--3--3--3--3--3--3--3--3----|
E------------------------------1--1--1--1--1--1--1--1--1----| 


e---3--3--3------------------------------------------------------|
B---1--1--1------------------------------------------------------|
G---0--0--0--5-\-7--7-\-9--9--9--9-------------------------------|
D---2--2--2--x-\-x--x-\-x--x--x--x--5--5--5--5--5--5--5--5--5----|
A------------3-\-5--5-\-7--7--7--7--3--3--3--3--3--3--3--3--3----|
E-----------------------------------1--1--1--1--1--1--1--1--1----|


e---3--3--3--3--3--3--3--3--3-------------------------------|
B---1--1--1--1--1--1--1--1--1-------------------------------|
G---0--0--0--0--2--0--2--0--0-------------------------------|
D---2--2--2--2--2--2--2--2--2--5--5--5--5--5--5--5--5--5----|
A------------------------------3--3--3--3--3--3--3--3--3----|
E------------------------------1--1--1--1--1--1--1--1--1----| 


e---3--3--3------------------------------------------------------|
B---1--1--1------------------------------------------------------|
G---0--0--0--5-\-7--7-\-9--9--9--9-------------------------------|
D---2--2--2--x-\-x--x-\-x--x--x--x--5--5--5--5--5--5--5--5--5----|
A------------3-\-5--5-\-7--7--7--7--3--3--3--3--3--3--3--3--3----|
E-----------------------------------1--1--1--1--1--1--1--1--1----|


Bit After Chorus 1

e-------------------|
B-------------------|
G-------------------|
D---0--(0)--(0)-----|
A---0--(0)--(0)-----|
E-------------------|


Verse

e-----------------------------------------|
B---------------------------6--6----------|
G---2--------2--------------5--5----------|
D---2--3--3--2--3--3--3--3--3--3----------|
A---0--3--3--0--3--3--3--3----------------|
E------1--1-----1--1--1--1----------------| x4

pm...


e-----------------------------------------|
B-----------------------------------------|
G---2--------2----------------------------|
D---2--3--3--2--3--3--3--3--3--3----------|
A---0--3--3--0--3--3--3--3--3--3----------|
E------1--1-----1--1--1--1--1--1----------| x4


Chorus 2

e---3--3--3--3--3--3--3--3--3-------------------------------|
B---1--1--1--1--1--1--1--1--1-------------------------------|
G---0--0--0--0--2--0--2--0--0-------------------------------|
D---2--2--2--2--2--2--2--2--2--5--5--5--5--5--5--5--5--5----|
A------------------------------3--3--3--3--3--3--3--3--3----|
E------------------------------1--1--1--1--1--1--1--1--1----| 


e---3--3--3------------------------------------------------------|
B---1--1--1------------------------------------------------------|
G---0--0--0--5-\-7--7-\-9--9--9--9-------------------------------|
D---2--2--2--x-\-x--x-\-x--x--x--x--5--5--5--5--5--5--5--5--5----|
A------------3-\-5--5-\-7--7--7--7--3--3--3--3--3--3--3--3--3----|
E-----------------------------------1--1--1--1--1--1--1--1--1----|


e---3--3--3--3--3--3--3--3--3-------------------------------|
B---1--1--1--1--1--1--1--1--1-------------------------------|
G---0--0--0--0--2--0--2--0--0-------------------------------|
D---2--2--2--2--2--2--2--2--2--5--5--5--5--5--5--5--5--5----|
A------------------------------3--3--3--3--3--3--3--3--3----|
E------------------------------1--1--1--1--1--1--1--1--1----| 


e---3--3--3------------------------------------------------------|
B---1--1--1------------------------------------------------------|
G---0--0--0--5-\-7--7-\-9--9--9--9-------------------------------|
D---2--2--2--x-\-x--x-\-x--x--x--x--5--5--5--5--5--5--5--5--5----|
A------------3-\-5--5-\-7--7--7--7--3--3--3--3--3--3--3--3--3----|
E-----------------------------------1--1--1--1--1--1--1--1--1----|


Bit After Chorus 2


e---------------------------------------------3--(3)--(3)------|
B---------------------------------------------3--(3)--(3)------|
G---5--5--5--5--5--5--5--5--5--5--5--5--5--5--5--(5)--(5)------|
D---3--3--3--3--3--3--3--3--3--3--3--3--3--3--5--(5)--(5)------|
A---1--1--1--1--1--1--1--1--1--1--1--1--1--1--3--(3)--(3)------|
E--------------------------------------------------------------|


Bridge

e--------3-----------------------0------------------|
B-----------1---------------------------------------|
G--------------2--------------2---------------------|
D-----------------------5--0--------------5---------|
A---3h5--------------3-----------------3--------5---|
E-----------------1-----------------1--------3------| 

e--------3-----------------------0------------------|
B-----------1---------------------------------------|
G--------------2--------------2---------------------|
D-----------------------5--0--------------5---------|
A--------------------3-----------------3--------5---|
E-----------------1-----------------1--------3------|


"Faaaaake" Part (Same as Chorus)

e---3--3--3--3--3--3--3--3--3-------------------------------|
B---1--1--1--1--1--1--1--1--1-------------------------------|
G---0--0--0--0--2--0--2--0--0-------------------------------|
D---2--2--2--2--2--2--2--2--2--5--5--5--5--5--5--5--5--5----|
A------------------------------3--3--3--3--3--3--3--3--3----|
E------------------------------1--1--1--1--1--1--1--1--1----| 


e---3--3--3------------------------------------------------------|
B---1--1--1------------------------------------------------------|
G---0--0--0--5-\-7--7-\-9--9--9--9-------------------------------|
D---2--2--2--x-\-x--x-\-x--x--x--x--5--5--5--5--5--5--5--5--5----|
A------------3-\-5--5-\-7--7--7--7--3--3--3--3--3--3--3--3--3----|
E-----------------------------------1--1--1--1--1--1--1--1--1----|


e---3--3--3--3--3--3--3--3--3-------------------------------|
B---1--1--1--1--1--1--1--1--1-------------------------------|
G---0--0--0--0--2--0--2--0--0-------------------------------|
D---2--2--2--2--2--2--2--2--2--5--5--5--5--5--5--5--5--5----|
A------------------------------3--3--3--3--3--3--3--3--3----|
E------------------------------1--1--1--1--1--1--1--1--1----| 


e---3--3--3------------------------------------------------------|
B---1--1--1------------------------------------------------------|
G---0--0--0--5-\-7--7-\-9--9--9--9-------------------------------|
D---2--2--2--x-\-x--x-\-x--x--x--x--5--5--5--5--5--5--5--5--5----|
A------------3-\-5--5-\-7--7--7--7--3--3--3--3--3--3--3--3--3----|
E-----------------------------------1--1--1--1--1--1--1--1--1----|

Outro Chorus Part (x2)

e---3--3--3--3--3--3--3--3--3-----------------------------|
B---1--1--1--1--1--1--1--1--1-----------------------------|
G---0--0--0--0--2--0--2--0--0-----------------------------|
D---2--2--2--2--2--2--2--2--2--5--5--5--5--5--5--5--5--5--|
A------------------------------3--3--3--3--3--3--3--3--3--|
E------------------------------1--1--1--1--1--1--1--1--1--|

e---0--0--0--0--0--0--0--0--0-|
B---3--3--3--3--3--3--3--3--3-|
G---2--2--2--2--2--2--2--2--2-|
D---0--0--0--0--0--0--0--0--0-|
A-----------------------------|
E-----------------------------|

e----------------------------------------|
B----------------------------------------|
G----------------------------------------|
D---5--5--5--5--5--5--5--5--5--5---------|
A---3--3--3--3--3--5--5--5--5--5---------|
E---1--1--1--1--1--3--3--3--3--3---------|


Ending

e---------------------------------------------3--(3)--(3)------|
B---------------------------------------------3--(3)--(3)------|
G---5--5--5--5--5--5--5--5--5--5--5--5--5--5--5--(5)--(5)------|
D---3--3--3--3--3--3--3--3--3--3--3--3--3--3--5--(5)--(5)------|
A---1--1--1--1--1--1--1--1--1--1--1--1--1--1--3--(3)--(3)------|
E--------------------------------------------------------------|
Добавлено: 31.05.2012
Другие материалы по этой песне:
  • Аккорды и текст

Страница создана 29.02.2012
http://primanota.ru/lo-pro/fake-chords.htm
Привет, Гость.
Предлагаем пройти революционный курс по гитаре.
Подарок от PrimaNota.Ru, забирай!