PrimaNota.ru - самый крупный в мире бесплатный архив песенных текстов, аккордов, табулатур и нот


Lo, Ismael - Tadieu Bone - таба, видео

Регистрация Запомнить меня
Войти через:  Facebook Google Twitter Vk Yandex Mail.ru

Lo, Ismael - Tadieu Bone - таба, видео

Печатать
Просмотров: 95
I think this tab looks like the original but it is not the full version. Repeat
more or less the whole tab during all the song. Assessments are welcome on abaa_frdric@yahoo.fr

E||--------------1--0--1------0---1-----|------------1--0--1------0---1------|
B||-----------1------------3------------|---------1------------3-------------|
G||*-------2----------------------------|------2-----------------------------|
D||*--3L--------------------------------|-3L---------------------------------|
A||-------------------------------------|------------------------------------|
E||-------------------------------------|------------------------------------|

                                                             x2
-----------1---1------0---1---|-----------1---1------0---1----||
--------3----------3----------|--------3----------3-----------||
-----2------------------------|---2--------------------------*||
-0L---------------------------|0L----------------------------*||
------------------------------|-------------------------------||
------------------------------|-------------------------------||

-------------1--0--1------0---1----|--------3----------------------------0----------|
----------1------------3-----------|-----0--------0-------------------1-------------|
-------2---------------------------|---0-------------0-----0-------0----------------|
--3L-------------------------------|0L--------------------0-------------------------|
-----------------------------------|--------------------------3-------------3--3----|
-----------------------------------|------------------------------------------------|

-----------------------------------|--------------3--3--3--2--2--0--------|
-----------------------3-----------|--------------------------------0-----|
--------------------2-----2--------|-----------0-----------------------0--|
-----------------0-----------0-----|--0-----0-----------------------------|
--2--2----0---------------------0--|-----2--------------------------------|
-----------------------------------|-----------------3--3--2--2--0--------|

-----0--------------------------------|-----------------3--3--2--2--0--------|
--------0-----0--1--1--1--0--0--------|-----3--0--------------------------0--|
-----------0--------------------2-----|-----------0--------------------0-----|
--2--------------------------------0--|--------------0-----------------------|
-----------------3--3--3--2--2--0-----|--0-----2-----------------------------|
--------------------------------------|-----------------3--3--2--2--0--------|

|--0-----0-----------------0-----0-----|--------------2-----------2-----3-----|
|-----------0-----------1-----1-----1--|-----3-----------3-----------3-----0--|
|-----0--------0-----2-----------------|--0-----2-----------2-----------------|
|--------------------------------------|-----0-----3-----------0--------------|
|-----------------0--------------------|--------------------------------------|
|--------------------------------------|--------------------------------3-----|



-----3--3--3--2--2--0--------------|
-----------------------------------|
--0--------------------------------| (Repeat all)
-----------------------------------|
-----------------------------------|
--------3--3--2--2--0--------------|


Ta..Tajabone, dejne, Tajabone
Ta..Tajabone, dejne, Tajabone

abduh u jam mal hy ajmhal
ja mahle kala
jawe eteeko da uzee seroon
mumun muhnida dagam du linga'n
mumun muhnida dagam du linga'n

ha we he ch'ticoon
da nun ze zerun
mumun muhnida dagam du linga
mumun muhnida dagam won n'ga

Tajabone, dejne, Tajabone
Tajabone, dejne, Tajabone

Wo leij, wo leij,?

abduh u jam mal hy ajmhal
ja mahle kala

N'ga, n'ga
Добавлено: 16.06.2013
Вам также может быть интересно:
Другие материалы по этой песне:
  • Аккорды и текст

Страница создана 16.06.2013
http://primanota.ru/lo-ismael/tadieu-bone-chords.htm
Привет, Гость.
Предлагаем пройти революционный курс по гитаре.
Подарок от PrimaNota.Ru, забирай!