PrimaNota.ru - самый крупный в мире бесплатный архив песенных текстов, аккордов, табулатур и нот


Lo-ball - Lipstick And Aspirin - таба, видео

Регистрация Запомнить меня
Войти через:  Facebook Google Twitter Vk Yandex Mail.ru

Lo-ball - Lipstick And Aspirin - таба, видео

Печатать
Просмотров: 62
This is my first tab, so please don't judge... I would love any feedback (good or 
bad) Thanks and enjoy :)

Lipstick and Aspirin
Lo-Ball

Standard Tuning

r = Rest (rhythm)
_ = tie
()= don't play on repeat

Intro:
e--------0_0-------|-----------------|
B------1-----1-0-1-|-----1-------1---|
G----2-------------|-------0-------0-|   x2
D--3---------------|---2-------0-----|
A------------------|-3-------2---0---|
E------------------|-----------------|

Verse 1:
e--------0_0-------|-----------------|
B------1-----1-0-1-|-----1-------1---|
G----2-------------|-------0-------0-|   x5
D--3---------------|---2-------0-----|
A------------------|-3-------2---0---|
E------------------|-----------------|
Sitting on the...wanna be to much like them.

Pre-Chorus:
e-r-------0-------r---------------|
B-r---1-------1---r-------0-------|
G-r-2---2---2---2-r---2-------0---|     x2
D-r---------------r-2---2---2---2-|
A-r---------------r---------------|
E-r---------------r---------------|
But when I talk...lipstick and aspirin

Chorus:
C              G
In another day,
G               Am
at a slower pace,
Am                    C
filling out your space,
C
when you don't know how.

C              G
In another day,
G               Am
at a slower pace,
Am                    C
filling out your space,
C
when you don't know-

Verse 2:
e--------0_0-------|-----------------|
B------1-----1-0-1-|-----1-------1---|
G----2-------------|-------0-------0-|   x5
D--3---------------|---2-------0-----|
A------------------|-3-------2---0---|
E------------------|-----------------|
Sucking on your thumb...off the shelf

Pre-Chorus 2:
e-r-------0-------r---------------|
B-r---1-------1---r-------0-------|
G-r-2---2---2---2-r---2-------0---|     x2
D-r---------------r-2---2---2---2-|
A-r---------------r---------------|
E-r---------------r---------------|
While I talk too...lipstick and aspirin

Chorus

Bridge:

e-----------------|-----------------|-----------------|-1-1-1-1-1-1-1-1-|
B-----------------|-----------------|-1-1-1-1-1-1-1-1-|-----------------|
G-1-1-1-1-1-1-1-1-|-3-3-3-3-3-3-3-3-|-----------------|-----------------|
D-----------------|-----------------|-----------------|-----------------|
A-----------------|-----------------|-----------------|-----------------|
E-----------------|-----------------|-----------------|-----------------|
Sometimes you don't know who...doubt gets out

Solo:
e---------r-------------r---------------------------------------|
B---------r-------------r---------1-1-1-1-1-1-1-----------------|
G---------r-------------r-----------------------0-0-0-0-0-0-0-0-|
D---------r-3-2-1_1-1_1-r---------2-2-2-2-2-2-2-2-2-2-2-2-2-2-2-|
A---------r-------------r-1-2-3_3-3-3-3-3-3-3-3-3-3-3-3-3-3-3-3-|
E-4_4-4_4-r-------------r---------------------------------------|


e---------r-------------r---------------------------------------|
B---------r-------------r---------1-1-1-1-1-1-1-----------------|
G---------r-------------r-----------------------0-0-0-0-0-0-0-0-|
D---------r-3-2-1_1-1_1-r---------------------------------------|
A---------r-------------r-1-2-3_3-------------------------------|
E-4_4-4_4-r-------------r---------------------------------------|

e-r_r---------------------------|----------------------------------|
B-r_r---------------------------|----------------------------------|
G-r_r-----------0_0-------------|---------------2_2-2-0_0----------|  x2
D-r_r-----0-2_2-----3_3-2_2-3_3-|-3_3-3-2_2-3_3-----------3_3------|
A-r_r-3_3-----------------------|-----------------------------(3_3)|
E-r_r---------------------------|----------------------------------|

Chorus x2

On last time chorus, hold last C

http://www.myspace.com/loballband
Добавлено: 17.10.2013
Другие материалы по этой песне:
  • Аккорды и текст

Страница создана 17.10.2013
http://primanota.ru/lo-ball/lipstick-and-aspirin-chords.htm
Привет, Гость.
Предлагаем пройти революционный курс по гитаре.
Подарок от PrimaNota.Ru, забирай!